Song name
# A B C D E F G H I J K L M N O P Q R S T U V W X Y Z

Dropkick Murphys - The Fields Of Athenry tab

Help us improve GuitareTab! Take a short survey!
#----------------------------------PLEASE NOTE---------------------------------#
#This file is the author's own work and represents their interpretation of the #
#song. You may only use this file for private study, scholarship, or research. #
#------------------------------------------------------------------------------#

THE FIELDS OF ATHENRY
As recorded by Dropkick Murphys
(From the 2003 Album BLACKOUT)

Transcribed by Pat Stevens
	

Words and Music by Pete St. John
Arranged by Dropkick Murphys

E5
x 7 9 9 x x
	
B5
7 9 9 x x x
	
G#5
4 6 6 x x x
	
C#5
9 11 11 x x x

Gtr I (D# G# C# F# A# D#) - 'Dist. 1 - Pan Right'
Gtr II (D# G# C# F# A# D#) - 'Dist. 2 - Pan Left'
Gtr III (E A D G B E) capo on the third fret - 'Acoustic - Pan Left'
Gtr IV (D# G# C# F# A# D#) - 'Bagpipes'
Gtr V (D# G# C# F# A# D#) - 'Dist. Solo'

 Intro
  Q=139
  B5                                      E5
 4/4
  Gtr I
  E E E Q   Q  E     E  E  E  Q  Q  S S   W                 +W
|----------------|----------------------|-----------------|--------------------|
|----------------|----------------------|-----------------|--------------------|
|----------------|----------------------|-9---------------|-(9)----------------|
|----------------|----------------------|-9---------------|-(9)----------------|
|-9-9-9-9--11--9-|-/12-12-12-11--9--9-9-|-7---------------|-(7)----------------|
|-7-7-7-7---7--7-|---7--7--7--7--7--7-7-|-----------------|--------------------|
|
| Gtr II
|                                         PM--------------------------------|
| W                  W                    E E E E E E E E    E  E E E E E E E
|----------------|----------------------|-----------------|--------------------|
|----------------|----------------------|-----------------|--------------------|
|----------------|----------------------|-----------------|--------------------|
|----------------|----------------------|-9-9-9-9-9-9-9-9-|--9--9-9-9-9-9-9-9--|
|----------------|----------------------|-7-7-7-7-7-7-7-7-|--7--7-7-7-7-7-7-7--|
|----------------|----------------------|-----------------|--------------------|


  B5                     B5
  Gtr I
  H       +Q    +E   E   E E E E E E E E
|-------------------/7-|-7-7-7-7-7-7-7-7-|
|-------------------/7-|-7-7-7-7-7-7-7-7-|
|----------------------|-----------------|
|-9-------(9)---(9)----|-----------------|
|-9-------(9)---(9)----|-----------------|
|-7-------(7)---(7)----|-----------------|
|
| Gtr II
| PM-----------------------------------|
| E E E E  E  E  E   E   E E E E E E E E
|----------------------|-----------------|
|----------------------|-----------------|
|----------------------|-----------------|
|----------------------|-----------------|
|-9-9-9-9--9--9--9---9-|-9-9-9-9-9-9-9-9-|
|-7-7-7-7--7--7--7---7-|-7-7-7-7-7-7-7-7-|


 Verse
  E5                E5                  G#5               E5
  Gtr II
    PM|   PM|   PM      PM|   PM|   PM    PM|   PM|   PM    PM|   PM|   PM
  E E E E E E E E    E  E E E E E E E   E E E E E E E E   E E E E E E E E
|-----------------|-------------------|-----------------|------------------|
|-----------------|-------------------|-----------------|------------------|
|-9-----9-----9---|--9------9-----9---|-----------------|-9-----9-----9----|
|-9-9-9-9-9-9-9-9-|--9--9-9-9-9-9-9-9-|-7-----7-----7---|-9-9-9-9-9-9-9-9--|
|-7-7-7-7-7-7-7-7-|--7--7-7-7-7-7-7-7-|-7-7-7-7-7-7-7-7-|-7-7-7-7-7-7-7-7--|
|-----------------|-------------------|-5-5-5-5-5-5-5-5-|------------------|
|
| Gtr I
| >
| W                 +W                  W                 W
|-----------------|-------------------|-----------------|------------------|
|-----------------|-------------------|-----------------|------------------|
|-9---------------|-(9)---------------|-----------------|------------------|
|-9---------------|-(9)---------------|-----------------|------------------|
|-7---------------|-(7)---------------|-----------------|------------------|
|-----------------|-------------------|-----------------|------------------|
|
| Gtr III
| Q   E Q   E Q      Q    E Q   E Q     E E E Q   E Q     Q   E Q   E Q
|-----------------|-------------------|-1-1-1-1---1-1---|------------------|
|-1---1-1---1-1---|--1----1-1---1-1---|-1-1-1-1---1-1---|-1---1-1---1-1----|
|-0---0-0---0-0---|--0----0-0---0-0---|-2-2-2-2---2-2---|-0---0-0---0-0----|
|-2---2-2---2-2---|--2----2-2---2-2---|-3-3-3-3---3-3---|-2---2-2---2-2----|
|-3---3-3---3-3---|--3----3-3---3-3---|-3-3-3-3---3-3---|-3---3-3---3-3----|
|-----------------|-------------------|-1-1-1-1---1-1---|------------------|


  B5                B5
  Gtr II
    PM|   PM|   PM    PM|   PM|   PM
  E E E E E E E E   E E E E E E E E
|-----------------|-----------------|
|-----------------|-----------------|
|-----------------|-----------------|
|-9-----9-----9---|-9-----9-----9---|
|-9-9-9-9-9-9-9-9-|-9-9-9-9-9-9-9-9-|
|-7-7-7-7-7-7-7-7-|-7-7-7-7-7-7-7-7-|
|
| Gtr III
| Q   E Q   E Q     Q   E Q   E Q
|-----------------|-----------------|
|-3---3-3---3-3---|-3---3-3---3-3---|
|-0---0-0---0-0---|-0---0-0---0-0---|
|-0---0-0---0-0---|-0---0-0---0-0---|
|-----------------|-----------------|
|-3---3-3---3-3---|-3---3-3---3-3---|


  E5                G#5               B5                B5
  Gtr II
    PM|   PM|   PM    PM|   PM|   PM    PM|   PM|   PM    PM|   PM|   PM
  E E E E E E E E   E E E E E E E E   E E E E E E E E   E E E E E E E E
|-----------------|-----------------|-----------------|------------------|
|-----------------|-----------------|-----------------|------------------|
|-9-----9-----9---|-----------------|-----------------|------------------|
|-9-9-9-9-9-9-9-9-|-7-----7-----7---|-9-----9-----9---|-9-----9-----9----|
|-7-7-7-7-7-7-7-7-|-7-7-7-7-7-7-7-7-|-9-9-9-9-9-9-9-9-|-9-9-9-9-9-9-9-9--|
|-----------------|-5-5-5-5-5-5-5-5-|-7-7-7-7-7-7-7-7-|-7-7-7-7-7-7-7-7--|
|
| Gtr III
| Q   E Q   E Q     Q   E Q   E Q     Q   E Q   E Q     Q   E Q   E Q
|-----------------|-1---1-1---1-1---|-----------------|------------------|
|-1---1-1---1-1---|-1---1-1---1-1---|-3---3-3---3-3---|-3---3-3---3-3----|
|-0---0-0---0-0---|-2---2-2---2-2---|-0---0-0---0-0---|-0---0-0---0-0----|
|-2---2-2---2-2---|-3---3-3---3-3---|-0---0-0---0-0---|-0---0-0---0-0----|
|-3---3-3---3-3---|-3---3-3---3-3---|-----------------|------------------|
|-----------------|-1---1-1---1-1---|-3---3-3---3-3---|-3---3-3---3-3----|


  E5                G#5               E5                G#5
  Gtr II
    PM|   PM|   PM    PM|   PM|   PM    PM|   PM|   PM    PM|   PM|   PM
  E E E E E E E E   E E E E E E E E   E E E E E E E E   E E E E E E E E
|-----------------|-----------------|-----------------|------------------|
|-----------------|-----------------|-----------------|------------------|
|-9-----9-----9---|-----------------|-----------------|------------------|
|-9-9-9-9-9-9-9-9-|-7-----7-----7---|-9-----9-----9---|-9-----9-----9----|
|-7-7-7-7-7-7-7-7-|-7-7-7-7-7-7-7-7-|-7-7-7-7-7-7-7-7-|-9-9-9-9-9-9-9-9--|
|-----------------|-5-5-5-5-5-5-5-5-|-0-0-0-0-0-0-0-0-|-7-7-7-7-7-7-7-7--|
|
| Gtr III
| Q   E Q   E Q     Q   E Q   E Q     Q   E Q   E Q     Q   E Q   E Q
|-----------------|-1---1-1---1-1---|-----------------|------------------|
|-1---1-1---1-1---|-1---1-1---1-1---|-1---1-1---1-1---|-3---3-3---3-3----|
|-0---0-0---0-0---|-2---2-2---2-2---|-0---0-0---0-0---|-0---0-0---0-0----|
|-2---2-2---2-2---|-3---3-3---3-3---|-2---2-2---2-2---|-0---0-0---0-0----|
|-3---3-3---3-3---|-3---3-3---3-3---|-3---3-3---3-3---|------------------|
|-----------------|-1---1-1---1-1---|-----------------|-3---3-3---3-3----|


  B5                B5                E5                E5
  Gtr II
    PM----------------------------------------------------------------|
  E E E E E E E E   E E E E E E E E   E E E E E E E E   E E E E E E E E
|-----------------|-----------------|-----------------|------------------|
|-----------------|-----------------|-----------------|------------------|
|-----------------|-----------------|-----------------|------------------|
|-9---------------|-----------------|-9-9-9-9-9-9-9-9-|-9-9-9-9-9-9-9-9--|
|-9-9-9-9-9-9-9-9-|-9-9-9-9-9-9-9-9-|-7-7-7-7-7-7-7-7-|-7-7-7-7-7-7-7-7--|
|-7-7-7-7-7-7-7-7-|-7-7-7-7-7-7-7-7-|-----------------|------------------|
|
| Gtr I
|                                                       <
|                                     PM----------------------|
| W                 W                 E E E E E E E E   E E E E E E E E
|-----------------|-----------------|-----------------|------------------|
|-----------------|-----------------|-----------------|------------------|
|-----------------|-----------------|-----------------|------------------|
|-----------------|-----------------|-9-9-9-9-9-9-9-9-|-9-9-9-9-9-9-9-9--|
|-----------------|-----------------|-7-7-7-7-7-7-7-7-|-7-7-7-7-7-7-7-7--|
|-----------------|-----------------|-----------------|------------------|
|
| Gtr III
| Q   E Q   E Q     Q   E Q   E Q     Q   E Q   E Q     Q   E Q   E Q
|-----------------|-----------------|-----------------|------------------|
|-3---3-3---3-3---|-3---3-3---3-3---|-1---1-1---1-1---|-1---1-1---1-1----|
|-0---0-0---0-0---|-0---0-0---0-0---|-0---0-0---0-0---|-0---0-0---0-0----|
|-0---0-0---0-0---|-0---0-0---0-0---|-2---2-2---2-2---|-2---2-2---2-2----|
|-----------------|-----------------|-3---3-3---3-3---|-3---3-3---3-3----|
|-3---3-3---3-3---|-3---3-3---3-3---|-----------------|------------------|


 Chorus
  E5                 G#5
  Gtrs I, II
   E E E E E E E E    E  E E E E E E E
|------------------|-------------------|
|------------------|-------------------|
|--9-9-9-9-9-9-9-9-|-------------------|
|--9-9-9-9-9-9-9-9-|--7--7-7-7-7-7-7-7-|
|--7-7-7-7-7-7-7-7-|--7--7-7-7-7-7-7-7-|
|------------------|--5--5-5-5-5-5-5-5-|
|
| Gtr IV
|  W                  H.           Q
|------------------|-------------------|
|-12---------------|-12------------9---|
|------------------|-------------------|
|------------------|-------------------|
|------------------|-------------------|
|------------------|-------------------|


  E5                   C#5
  E E  E  E E E  E E    E   E  E  E  E  E  E  E
|--------------------|---------------------------|
|--------------------|---------------------------|
|-9-9--9--9-9-9--9-9-|---------------------------|
|-9-9--9--9-9-9--9-9-|-11--11-11-11-11-11-11-11--|
|-7-7--7--7-7-7--7-7-|-11--11-11-11-11-11-11-11--|
|--------------------|--9---9--9--9--9--9--9--9--|
|
| Q   +E  E E Q.        H.                 Q
|--------------------|---------------------------|
|-5---(5)---5-7------|--9------------------7-----|
|---------4----------|---------------------------|
|--------------------|---------------------------|
|--------------------|---------------------------|
|--------------------|---------------------------|


  E5                   C#5
  Gtrs I, II
  E E  E  E E E  E E    E  E  E  E  E  E  E  E
|--------------------|-------------------------|
|--------------------|-------------------------|
|-9-9--9--9-9-9--9-9-|-------------------------|
|-9-9--9--9-9-9--9-9-|-11-11-11-11-11-11-11-11-|
|-7-7--7--7-7-7--7-7-|-11-11-11-11-11-11-11-11-|
|--------------------|--9--9--9--9--9--9--9--9-|
|
| Gtr IV
| Q   +E  E E Q.        H           Q     Q
|--------------------|-------------------------|
|-5---(5)---5-7------|--9----------10----12----|
|---------4----------|-------------------------|
|--------------------|-------------------------|
|--------------------|-------------------------|
|--------------------|-------------------------|


  B5                B5
  E E E E E E E E    E  E E E E E  E E
|-----------------|---------------------|
|-----------------|---------------------|
|-----------------|---------------------|
|-9-9-9-9-9-9-9-9-|--9--9-9-9-9-9--9-9--|
|-9-9-9-9-9-9-9-9-|--9--9-9-9-9-9--9-9--|
|-7-7-7-7-7-7-7-7-|--7--7-7-7-7-7--7-7--|
|
| W                 +H.            Q
|-----------------|---------------------|
|-7---------------|-(7)-----------12----|
|-----------------|---------------------|
|-----------------|---------------------|
|-----------------|---------------------|
|-----------------|---------------------|


  E5                       G#5
  Gtrs I, II
   E E   E   E  E E  E E    E  E E E E E  E  E
|------------------------|---------------------|
|------------------------|---------------------|
|--9-9---9---9--9-9--9-9-|---------------------|
|--9-9---9---9--9-9--9-9-|--7--7-7-7-7-7--7--7-|
|--7-7---7---7--7-7--7-7-|--7--7-7-7-7-7--7--7-|
|------------------------|--5--5-5-5-5-5--5--5-|
|
| Gtr IV
|  Q    +E   E  E Q.        H.            E  E
|------------------------|---------------------|
|-12---(12)-12-10-9------|-10------------12-10-|
|------------------------|---------------------|
|------------------------|---------------------|
|------------------------|---------------------|
|------------------------|---------------------|


  E5                  B5
  E E  E  E E E E E   E  E E E E E E E
|-------------------|-------------------|
|-------------------|-------------------|
|-9-9--9--9-9-9-9-9-|-------------------|
|-9-9--9--9-9-9-9-9-|-9--9-9-9-9-9-9-9--|
|-7-7--7--7-7-7-7-7-|-9--9-9-9-9-9-9-9--|
|-0-0--0--0-0-0-0-0-|-7--7-7-7-7-7-7-7--|
|
| Q   +E  E E Q   E   H.           Q
|-------------------|-------------------|
|-9---(9)-7-5-7---9-|-7-----------------|
|-------------------|--------------4----|
|-------------------|-------------------|
|-------------------|-------------------|
|-------------------|-------------------|


  B5                  B5
  Gtr I
  E E E  E E E E  E   E E  E  E E E   E E
|-------------------|---------------------|
|-------------------|---------------------|
|-------------------|---------------------|
|-9-9-9--9-9-9-9--9-|-9-9--9--9-9-9---9-9-|
|-9-9-9--9-9-9-9--9-|-9-9--9--9-9-9---9-9-|
|-7-7-7--7-7-7-7--7-|-7-7--7--7-7-7---7-7-|
|
| Gtr II
| E E E  E E E E  E   E E  E  E E E   E E
|-------------------|---------------------|
|-------------------|---------------------|
|-------------------|---------------------|
|-9-9-9--9-9-9-9--9-|-9-9--9--9-9-9---9-9-|
|-9-9-9--9-9-9-9--9-|-9-9--9--9-9-9---9-9-|
|-7-7-7--7-7-7-7--7-|-7-7--7--7-7-7---7-7-|
|
| Gtr IV
| Q   Q.     Q    E   E E +Q.     S S E E
|-------------------|---------------------|
|-7---7------9---10-|-9-7-(7)-----7-9-5-4-|
|-------------------|---------------------|
|-------------------|---------------------|
|-------------------|---------------------|
|-------------------|---------------------|


  E5                E5
  E E E E E E E E    E  E E E E E E E
|-----------------|-------------------|
|-----------------|-------------------|
|-9-9-9-9-9-9-9-9-|--9--9-9-9-9-9-9-9-|
|-9-9-9-9-9-9-9-9-|--9--9-9-9-9-9-9-9-|
|-7-7-7-7-7-7-7-7-|--7--7-7-7-7-7-7-7-|
|-----------------|-------------------|
|
| E E E E E E E E    E  E E E E E E E
|-----------------|-------------------|
|-----------------|-------------------|
|-----------------|-------------------|
|-2-2-2-2-2-2-2-2-|--2--2-2-2-2-2-2-2-|
|-2-2-2-2-2-2-2-2-|--2--2-2-2-2-2-2-2-|
|-0-0-0-0-0-0-0-0-|--0--0-0-0-0-0-0-0-|
|
| W                 +W
|-----------------|-------------------|
|-5---------------|-(5)---------------|
|-----------------|-------------------|
|-----------------|-------------------|
|-----------------|-------------------|
|-----------------|-------------------|


 Break
  B5                  B5
  Gtr I
  E E E  E E E E  E   E E  E  E E E   E E
|-------------------|---------------------|
|-------------------|---------------------|
|-------------------|---------------------|
|-9-9-9--9-9-9-9--9-|-9-9--9--9-9-9---9-9-|
|-9-9-9--9-9-9-9--9-|-9-9--9--9-9-9---9-9-|
|-7-7-7--7-7-7-7--7-|-7-7--7--7-7-7---7-7-|
|
| Gtr II
| E E E  E E E E  E   E E  E  E E E   E E
|-------------------|---------------------|
|-------------------|---------------------|
|-------------------|---------------------|
|-9-9-9--9-9-9-9--9-|-9-9--9--9-9-9---9-9-|
|-9-9-9--9-9-9-9--9-|-9-9--9--9-9-9---9-9-|
|-7-7-7--7-7-7-7--7-|-7-7--7--7-7-7---7-7-|
|
| Gtr IV
| Q   Q.     Q    E   E E +Q.     S S E E
|-------------------|---------------------|
|-7---7------9---10-|-9-7-(7)-----7-9-5-4-|
|-------------------|---------------------|
|-------------------|---------------------|
|-------------------|---------------------|
|-------------------|---------------------|


  E5                E5
  E E E E E E E E    E  E E E E E E E
|-----------------|-------------------|
|-----------------|-------------------|
|-9-9-9-9-9-9-9-9-|--9--9-9-9-9-9-9-9-|
|-9-9-9-9-9-9-9-9-|--9--9-9-9-9-9-9-9-|
|-7-7-7-7-7-7-7-7-|--7--7-7-7-7-7-7-7-|
|-----------------|-------------------|
|
| E E E E E E E E    E  E E E E E E E
|-----------------|-------------------|
|-----------------|-------------------|
|-----------------|-------------------|
|-2-2-2-2-2-2-2-2-|--2--2-2-2-2-2-2-2-|
|-2-2-2-2-2-2-2-2-|--2--2-2-2-2-2-2-2-|
|-0-0-0-0-0-0-0-0-|--0--0-0-0-0-0-0-0-|
|
| W                 +W
|-----------------|-------------------|
|-5---------------|-(5)---------------|
|-----------------|-------------------|
|-----------------|-------------------|
|-----------------|-------------------|
|-----------------|-------------------|


 Verse
  E5                  E5
  Gtr II
     PM|   PM|    PM    PM|   PM|   PM
  E  E E E E E  E E   E E E E E E E E
|-------------------|-----------------|
|-------------------|-----------------|
|-9------9------9---|-9-----9-----9---|
|-9--9-9-9-9-9--9-9-|-9-9-9-9-9-9-9-9-|
|-7--7-7-7-7-7--7-7-|-7-7-7-7-7-7-7-7-|
|-------------------|-----------------|
|
| Gtr IV
| Q.     E E Q.       W
|-------------------|-----------------|
|-5------5-5-7------|-9---------------|
|-------------------|-----------------|
|-------------------|-----------------|
|-------------------|-----------------|
|-------------------|-----------------|


  G#5                      G#5
     PM|        PM|    PM    PM|    PM-|    PM
   E E   E   E  E E  E E   E E E E  E   E E E
|------------------------|---------------------|
|------------------------|---------------------|
|------------------------|-9-----9--------9----|
|--7---------7-------7---|-9-9-9-9--9---9-9-9--|
|--7-7---7---7--7-7--7-7-|-7-7-7-7--7---7-7-7--|
|--5-5---5---5--5-5--5-5-|---------------------|
|
|  Q    +E   E  Q    Q     H       +E   E E E
|------------------------|---------------------|
|-10---(10)-10-10---12---|-9-------(9)-10-9-5--|
|------------------------|---------------------|
|------------------------|---------------------|
|------------------------|---------------------|
|------------------------|---------------------|


  B5                B5
  Gtr II
    PM|   PM|   PM      PM|   PM|   PM
  E E E E E E E E    E  E E E E E E E
|-----------------|-------------------|
|-----------------|-------------------|
|-----------------|-------------------|
|-9-----9-----9---|--9------9-----9---|
|-9-9-9-9-9-9-9-9-|--9--9-9-9-9-9-9-9-|
|-7-7-7-7-7-7-7-7-|--7--7-7-7-7-7-7-7-|
|
| Gtr IV
| W                 +W
|-----------------|-------------------|
|-7---------------|-(7)---------------|
|-----------------|-------------------|
|-----------------|-------------------|
|-----------------|-------------------|
|-----------------|-------------------|


  E5                 G#5
  Gtr II
     PM|   PM|   PM     PM|           PM|   PM
   E E E E E E E E    E E   E   E     E E E E
|------------------|--------------------------|
|------------------|--------------------------|
|--9-----9-----9---|--------------------------|
|--9-9-9-9-9-9-9-9-|--7---------7---------7---|
|--7-7-7-7-7-7-7-7-|--7-7---7---7-----7-7-7-7-|
|------------------|--5-5---5---5-----5-5-5-5-|
|
| Gtr I
|  PM------------------------------------------
|  E E E E E E E E    E E   E   E     E E E E
|------------------|--------------------------|
|------------------|--------------------------|
|------------------|--------------------------|
|--9-9-9-9-9-9-9-9-|--------------------------|
|--7-7-7-7-7-7-7-7-|--7-7---7---7-----7-7-7-7-|
|------------------|--5-5---5---5-----5-5-5-5-|
|
| Gtr IV
|  W                  Q    +E   S  S  Q   Q
|------------------|--------------------------|
|-12---------------|-10---(10)-10-12-10---9---|
|------------------|--------------------------|
|------------------|--------------------------|
|------------------|--------------------------|
|------------------|--------------------------|


  B5                B5
    PM|   PM|   PM      PM|   PM|   PM
  E E E E E E E E    E  E E E E E E E
|-----------------|-------------------|
|-----------------|-------------------|
|-----------------|-------------------|
|-9-----9-----9---|--9------9-----9---|
|-9-9-9-9-9-9-9-9-|--9--9-9-9-9-9-9-9-|
|-7-7-7-7-7-7-7-7-|--7--7-7-7-7-7-7-7-|
|
|-----------------------------------|
| E E E E E E E E    E  E E E E E E E
|-----------------|-------------------|
|-----------------|-------------------|
|-----------------|-------------------|
|-----------------|-------------------|
|-9-9-9-9-9-9-9-9-|--9--9-9-9-9-9-9-9-|
|-7-7-7-7-7-7-7-7-|--7--7-7-7-7-7-7-7-|
|
| W                 +H.           E E
|-----------------|-------------------|
|-7---------------|-(7)-----------7-9-|
|-----------------|-------------------|
|-----------------|-------------------|
|-----------------|-------------------|
|-----------------|-------------------|


  E5                       G#5
  Gtr II
     PM|        PM|    PM      PM|   PM|     PM
   E E   E   E  E E  E E    E  E E E E E  E  E
|------------------------|---------------------|
|------------------------|---------------------|
|--9---------9-------9---|---------------------|
|--9-9---9---9--9-9--9-9-|--7------7------7----|
|--7-7---7---7--7-7--7-7-|--7--7-7-7-7-7--7--7-|
|------------------------|--5--5-5-5-5-5--5--5-|
|
| Gtr I
|  PM-------------------------------------------
|  E E   E   E  E E  E E    E  E E E E E  E  E
|------------------------|---------------------|
|------------------------|---------------------|
|------------------------|---------------------|
|--9-9---9---9--9-9--9-9-|---------------------|
|--7-7---7---7--7-7--7-7-|--7--7-7-7-7-7--7--7-|
|------------------------|--5--5-5-5-5-5--5--5-|
|
| Gtr IV
|  Q    +E   E  E Q.        H.            E  E
|------------------------|---------------------|
|-12---(12)-12-10-9------|-10------------12-10-|
|------------------------|---------------------|
|------------------------|---------------------|
|------------------------|---------------------|
|------------------------|---------------------|


  E5                  B5
    PM|     PM|   PM     PM|   PM|   PM
  E E  E  E E E E E   E  E E E E E E E
|-------------------|-------------------|
|-------------------|-------------------|
|-------------------|-------------------|
|-9-------9-----9---|-9------9-----9----|
|-7-7--7--7-7-7-7-7-|-9--9-9-9-9-9-9-9--|
|-0-0--0--0-0-0-0-0-|-7--7-7-7-7-7-7-7--|
|
|------------------------------------|
| E E  E  E E E E E   E  E E E E E E E
|-------------------|-------------------|
|-------------------|-------------------|
|-------------------|-------------------|
|-------------------|-------------------|
|-7-7--7--7-7-7-7-7-|-9--9-9-9-9-9-9-9--|
|-0-0--0--0-0-0-0-0-|-7--7-7-7-7-7-7-7--|
|
| Q   +E  E E Q   E   H.           Q
|-------------------|-------------------|
|-9---(9)-7-5-7---9-|-7-----------------|
|-------------------|--------------4----|
|-------------------|-------------------|
|-------------------|-------------------|
|-------------------|-------------------|


  B5                  B5                 E5                E5
  Gtr II
    PM---------------------------------------------------------------------|
  E E E E  E E  E E    E E E E E E E E   E E E E E E E E    E  E E E E E E E
|-------------------|------------------|-----------------|--------------------|
|-------------------|------------------|-----------------|--------------------|
|-------------------|------------------|-----------------|--------------------|
|-9-----------------|------------------|-9-9-9-9-9-9-9-9-|--9--9-9-9-9-9-9-9--|
|-9-9-9-9--9-9--9-9-|--9-9-9-9-9-9-9-9-|-7-7-7-7-7-7-7-7-|--7--7-7-7-7-7-7-7--|
|-7-7-7-7--7-7--7-7-|--7-7-7-7-7-7-7-7-|-----------------|--------------------|
|
| Gtr I
|                                                           <
| PM---------------------------------------------------------------|
| E E E E  E E  E E    E E E E E E E E   E E E E E E E E    E  E E E E E E E
|-------------------|------------------|-----------------|--------------------|
|-------------------|------------------|-----------------|--------------------|
|-------------------|------------------|-----------------|--------------------|
|-------------------|------------------|-9-9-9-9-9-9-9-9-|--9--9-9-9-9-9-9-9--|
|-9-9-9-9--9-9--9-9-|--9-9-9-9-9-9-9-9-|-7-7-7-7-7-7-7-7-|--7--7-7-7-7-7-7-7--|
|-7-7-7-7--7-7--7-7-|--7-7-7-7-7-7-7-7-|-----------------|--------------------|
|
| Gtr IV
| E Q   Q.      Q      E Q   Q   Q   E   W                 +W
|-------------------|------------------|-----------------|--------------------|
|-7-7---9------10---|-10-9---7---5---4-|-5---------------|-(5)----------------|
|-------------------|------------------|-----------------|--------------------|
|-------------------|------------------|-----------------|--------------------|
|-------------------|------------------|-----------------|--------------------|
|-------------------|------------------|-----------------|--------------------|


 Chorus
  E5                 G#5
  Gtrs I, II

   E E E E E E E E    E  E E E E E E E
|------------------|-------------------|
|------------------|-------------------|
|--9-9-9-9-9-9-9-9-|-------------------|
|--9-9-9-9-9-9-9-9-|--7--7-7-7-7-7-7-7-|
|--7-7-7-7-7-7-7-7-|--7--7-7-7-7-7-7-7-|
|------------------|--5--5-5-5-5-5-5-5-|
|
| Gtr IV
|  W                  H.           Q
|------------------|-------------------|
|-12---------------|-12------------9---|
|------------------|-------------------|
|------------------|-------------------|
|------------------|-------------------|
|------------------|-------------------|


  E5                   C#5
  E E  E  E E E  E E    E   E  E  E  E  E  E  E
|--------------------|---------------------------|
|--------------------|---------------------------|
|-9-9--9--9-9-9--9-9-|---------------------------|
|-9-9--9--9-9-9--9-9-|-11--11-11-11-11-11-11-11--|
|-7-7--7--7-7-7--7-7-|-11--11-11-11-11-11-11-11--|
|--------------------|--9---9--9--9--9--9--9--9--|
|
| Q   +E  E E Q.        H.                 Q
|--------------------|---------------------------|
|-5---(5)---5-7------|--9------------------7-----|
|---------4----------|---------------------------|
|--------------------|---------------------------|
|--------------------|---------------------------|
|--------------------|---------------------------|


  E5                   C#5
  Gtrs I, II
  E E  E  E E E  E E    E  E  E  E  E  E  E  E
|--------------------|-------------------------|
|--------------------|-------------------------|
|-9-9--9--9-9-9--9-9-|-------------------------|
|-9-9--9--9-9-9--9-9-|-11-11-11-11-11-11-11-11-|
|-7-7--7--7-7-7--7-7-|-11-11-11-11-11-11-11-11-|
|--------------------|--9--9--9--9--9--9--9--9-|
|
| Gtr IV
| Q   +E  E E Q.        H           Q     Q
|--------------------|-------------------------|
|-5---(5)---5-7------|--9----------10----12----|
|---------4----------|-------------------------|
|--------------------|-------------------------|
|--------------------|-------------------------|
|--------------------|-------------------------|


  B5                B5
  E E E E E E E E    E  E E E E E  E E
|-----------------|---------------------|
|-----------------|---------------------|
|-----------------|---------------------|
|-9-9-9-9-9-9-9-9-|--9--9-9-9-9-9--9-9--|
|-9-9-9-9-9-9-9-9-|--9--9-9-9-9-9--9-9--|
|-7-7-7-7-7-7-7-7-|--7--7-7-7-7-7--7-7--|
|
| W                 +H.            Q
|-----------------|---------------------|
|-7---------------|-(7)-----------12----|
|-----------------|---------------------|
|-----------------|---------------------|
|-----------------|---------------------|
|-----------------|---------------------|


  E5                       G#5
  Gtrs I, II
   E E   E   E  E E  E E    E  E E E E E  E  E
|------------------------|---------------------|
|------------------------|---------------------|
|--9-9---9---9--9-9--9-9-|---------------------|
|--9-9---9---9--9-9--9-9-|--7--7-7-7-7-7--7--7-|
|--7-7---7---7--7-7--7-7-|--7--7-7-7-7-7--7--7-|
|------------------------|--5--5-5-5-5-5--5--5-|
|
| Gtr IV
|  Q    +E   E  E Q.        H.            E  E
|------------------------|---------------------|
|-12---(12)-12-10-9------|-10------------12-10-|
|------------------------|---------------------|
|------------------------|---------------------|
|------------------------|---------------------|
|------------------------|---------------------|


  E5                  B5
  E E  E  E E E E E   E  E E E E E E E
|-------------------|-------------------|
|-------------------|-------------------|
|-9-9--9--9-9-9-9-9-|-------------------|
|-9-9--9--9-9-9-9-9-|-9--9-9-9-9-9-9-9--|
|-7-7--7--7-7-7-7-7-|-9--9-9-9-9-9-9-9--|
|-0-0--0--0-0-0-0-0-|-7--7-7-7-7-7-7-7--|
|
| Q   +E  E E Q   E   H.           Q
|-------------------|-------------------|
|-9---(9)-7-5-7---9-|-7-----------------|
|-------------------|--------------4----|
|-------------------|-------------------|
|-------------------|-------------------|
|-------------------|-------------------|


  B5                  B5
  Gtr I
  E E E  E E E E  E   E E  E  E E E   E E
|-------------------|---------------------|
|-------------------|---------------------|
|-------------------|---------------------|
|-9-9-9--9-9-9-9--9-|-9-9--9--9-9-9---9-9-|
|-9-9-9--9-9-9-9--9-|-9-9--9--9-9-9---9-9-|
|-7-7-7--7-7-7-7--7-|-7-7--7--7-7-7---7-7-|
|
| Gtr II
| E E E  E E E E  E   E E  E  E E E   E E
|-------------------|---------------------|
|-------------------|---------------------|
|-------------------|---------------------|
|-9-9-9--9-9-9-9--9-|-9-9--9--9-9-9---9-9-|
|-9-9-9--9-9-9-9--9-|-9-9--9--9-9-9---9-9-|
|-7-7-7--7-7-7-7--7-|-7-7--7--7-7-7---7-7-|
|
| Gtr IV
| Q   Q.     Q    E   E E +Q.     S S E E
|-------------------|---------------------|
|-7---7------9---10-|-9-7-(7)-----7-9-5-4-|
|-------------------|---------------------|
|-------------------|---------------------|
|-------------------|---------------------|
|-------------------|---------------------|


  E5                E5
  E E E E E E E E    E  E E E E E E E
|-----------------|-------------------|
|-----------------|-------------------|
|-9-9-9-9-9-9-9-9-|--9--9-9-9-9-9-9-9-|
|-9-9-9-9-9-9-9-9-|--9--9-9-9-9-9-9-9-|
|-7-7-7-7-7-7-7-7-|--7--7-7-7-7-7-7-7-|
|-----------------|-------------------|
|
| E E E E E E E E    E  E E E E E E E
|-----------------|-------------------|
|-----------------|-------------------|
|-----------------|-------------------|
|-2-2-2-2-2-2-2-2-|--2--2-2-2-2-2-2-2-|
|-2-2-2-2-2-2-2-2-|--2--2-2-2-2-2-2-2-|
|-0-0-0-0-0-0-0-0-|--0--0-0-0-0-0-0-0-|
|
| W                 +W
|-----------------|-------------------|
|-5---------------|-(5)---------------|
|-----------------|-------------------|
|-----------------|-------------------|
|-----------------|-------------------|
|-----------------|-------------------|


 Guitar Solo
  E5                    G#5
  Gtr V
   Q.     Q.     E  E    Q.     Q.     E E
|---------------------|--------------------|
|---------------------|--------------------|
|---------------------|--------------------|
|--9------9------9-11-|--9------7------6---|
|---------------------|------------------9-|
|---------------------|--------------------|
|
| Gtrs I, II
|  E  E E E  E E E  E    E  E E E  E E E E
|---------------------|--------------------|
|---------------------|--------------------|
|--9--9-9-9--9-9-9--9-|--------------------|
|--9--9-9-9--9-9-9--9-|--7--7-7-7--7-7-7-7-|
|--7--7-7-7--7-7-7--7-|--7--7-7-7--7-7-7-7-|
|---------------------|--5--5-5-5--5-5-5-5-|
|
| Gtr IV
|  W                     H.            Q
|---------------------|--------------------|
|-12------------------|-12-------------9---|
|---------------------|--------------------|
|---------------------|--------------------|
|---------------------|--------------------|
|---------------------|--------------------|


  E5                     C#5
  H         +E  E  E E    H.                +E   E
|----------------------|---------------------------|
|----------------------|---------------------------|
|----------------------|---------------------------|
|-6---------(6)--------|--6-----------------(6)----|
|---------------7--7-9-|-------------------------9-|
|----------------------|---------------------------|
|
| E E  E  E  E  E  E E    E   E  E  E  E  E  E   E
|----------------------|---------------------------|
|----------------------|---------------------------|
|-9-9--9--9--9--9--9-9-|---------------------------|
|-9-9--9--9--9--9--9-9-|-11--11-11-11-11-11-11--11-|
|-7-7--7--7--7--7--7-7-|-11--11-11-11-11-11-11--11-|
|----------------------|--9---9--9--9--9--9--9---9-|
|
| Q   +E  E  E  Q.        H.                 Q
|----------------------|---------------------------|
|-5---(5)----5--7------|--9------------------7-----|
|---------4------------|---------------------------|
|----------------------|---------------------------|
|----------------------|---------------------------|
|----------------------|---------------------------|


  E5                   C#5
  Gtr V
  Q   +E  H        E    Q    +E   E  E  Q     E
|--------------------|--------------------------|
|--------------------|--------------------------|
|--------------------|--------------------------|
|-6---(6)-9--------7-|--7----(7)--7--6----------|
|--------------------|------------------9-----7-|
|--------------------|--------------------------|
|
| Gtrs I, II
| E E  E  E E E  E E    E  E  E   E  E  E  E  E
|--------------------|--------------------------|
|--------------------|--------------------------|
|-9-9--9--9-9-9--9-9-|--------------------------|
|-9-9--9--9-9-9--9-9-|-11-11-11--11-11-11-11-11-|
|-7-7--7--7-7-7--7-7-|-11-11-11--11-11-11-11-11-|
|--------------------|--9--9--9---9--9--9--9--9-|
|
| Gtr IV
| Q   +E  E E Q.        H            Q     Q
|--------------------|--------------------------|
|-5---(5)---5-7------|--9-----------10----12----|
|---------4----------|--------------------------|
|--------------------|--------------------------|
|--------------------|--------------------------|
|--------------------|--------------------------|


  B5                    B5
  H.           +E   E    E  E E E E E  E E
|------------------/7-|--7--7-7-7-7-7--7-7-|
|------------------/7-|--7--7-7-7-7-7--7-7-|
|---------------------|--------------------|
|---------------------|--------------------|
|-9------------(9)----|--------------------|
|---------------------|--------------------|
|
| E  E E E E E  E   E    E  E E E E E  E E
|---------------------|--------------------|
|---------------------|--------------------|
|---------------------|--------------------|
|-9--9-9-9-9-9--9---9-|--9--9-9-9-9-9--9-9-|
|-9--9-9-9-9-9--9---9-|--9--9-9-9-9-9--9-9-|
|-7--7-7-7-7-7--7---7-|--7--7-7-7-7-7--7-7-|
|
| W                     +H.            Q
|---------------------|--------------------|
|-7-------------------|-(7)-----------12---|
|---------------------|--------------------|
|---------------------|--------------------|
|---------------------|--------------------|
|---------------------|--------------------|


  E5                          G#5
  Gtr V
   Q.         Q.       E  E    Q.     Q.      E  E
|---------------------------|----------------------|
|---------------------------|----------------------|
|---------------------------|----------------------|
|--9----------9--------9-11-|--9------7-------6----|
|---------------------------|--------------------9-|
|---------------------------|----------------------|
|
| Gtrs I, II
|  E  E   E   E   E E  E  E    E  E E E  E E  E  E
|---------------------------|----------------------|
|---------------------------|----------------------|
|--9--9---9---9---9-9--9--9-|----------------------|
|--9--9---9---9---9-9--9--9-|--7--7-7-7--7-7--7--7-|
|--7--7---7---7---7-7--7--7-|--7--7-7-7--7-7--7--7-|
|---------------------------|--5--5-5-5--5-5--5--5-|
|
| Gtr IV
|  Q     +E   E   E Q.         H.             E  E
|---------------------------|----------------------|
|-12----(12)-12--10-9-------|-10-------------12-10-|
|---------------------------|----------------------|
|---------------------------|----------------------|
|---------------------------|----------------------|
|---------------------------|----------------------|


  E5                    B5
  H         +E  E E E   H.           Q
|---------------------|------------------|
|---------------------|------------------|
|---------------------|------------------|
|-6---------(6)-7-6---|------------------|
|-------------------7-|-9----------------|
|---------------------|--------------7---|
|
| E E  E  E  E  E E E   E  E E E E E E E
|---------------------|------------------|
|---------------------|------------------|
|-9-9--9--9--9--9-9-9-|------------------|
|-9-9--9--9--9--9-9-9-|-9--9-9-9-9-9-9-9-|
|-7-7--7--7--7--7-7-7-|-9--9-9-9-9-9-9-9-|
|-0-0--0--0--0--0-0-0-|-7--7-7-7-7-7-7-7-|
|
| Q   +E  E  E  Q   E   H.           Q
|---------------------|------------------|
|-9---(9)-7--5--7---9-|-7----------------|
|---------------------|--------------4---|
|---------------------|------------------|
|---------------------|------------------|
|---------------------|------------------|


  B5                   B5
  Gtr V
  Q   E  Q    Q    E    E  E  E   Q   Q     E
|--------------------|------------------------|
|--------------------|------------------------|
|--------------------|------------------------|
|--------------------|------------------------|
|-9---9--9---11----9-|-12-12-12--11---9-----9-|
|--------------------|------------------------|
|
| Gtrs I, II
| E E E  E E  E E  E    E  E  E   E E E   E E
|--------------------|------------------------|
|--------------------|------------------------|
|--------------------|------------------------|
|-9-9-9--9-9--9-9--9-|--9--9--9---9-9-9---9-9-|
|-9-9-9--9-9--9-9--9-|--9--9--9---9-9-9---9-9-|
|-7-7-7--7-7--7-7--7-|--7--7--7---7-7-7---7-7-|
|
| Gtr IV
| Q   Q.      Q    E    E  E +Q.      S S E E
|--------------------|------------------------|
|-7---7-------9---10-|--9--7-(7)------7-9-7-4-|
|--------------------|------------------------|
|--------------------|------------------------|
|--------------------|------------------------|
|--------------------|------------------------|


  E5                E5
  W                 +W
|-----------------|-------------------|
|-----------------|-------------------|
|-9---------------|-(9)---------------|
|-9---------------|-(9)---------------|
|-7---------------|-(7)---------------|
|-----------------|-------------------|
|
| E E E E E E E E    E  E E E E E E E
|-----------------|-------------------|
|-----------------|-------------------|
|-9-9-9-9-9-9-9-9-|--9--9-9-9-9-9-9-9-|
|-9-9-9-9-9-9-9-9-|--9--9-9-9-9-9-9-9-|
|-7-7-7-7-7-7-7-7-|--7--7-7-7-7-7-7-7-|
|-0-0-0-0-0-0-0-0-|--0--0-0-0-0-0-0-0-|
|
| W                 +W
|-----------------|-------------------|
|-5---------------|-(5)---------------|
|-----------------|-------------------|
|-----------------|-------------------|
|-----------------|-------------------|
|-----------------|-------------------|


  B5                   B5
  Gtr V
  E E E  Q    Q    E    E  E  E   Q   Q     S S
|--------------------|--------------------------|
|--------------------|--------------------------|
|--------------------|--------------------------|
|--------------------|--------------------------|
|-9-9-9--9---11----9-|-12-12-12--11---9-----9-9-|
|-7-7-7--7----7----7-|--7--7--7---7---7-----7-7-|
|
| Gtrs I, II
| E E E  E E  E E  E    E  E  E   E E E   E E
|--------------------|--------------------------|
|--------------------|--------------------------|
|--------------------|--------------------------|
|-9-9-9--9-9--9-9--9-|--9--9--9---9-9-9---9-9---|
|-9-9-9--9-9--9-9--9-|--9--9--9---9-9-9---9-9---|
|-7-7-7--7-7--7-7--7-|--7--7--7---7-7-7---7-7---|
|
| Gtr IV
| Q   Q.      Q    E    E  E +Q.      S S E E
|--------------------|--------------------------|
|-7---7-------9---10-|--9--7-(7)------7-9-7-4---|
|--------------------|--------------------------|
|--------------------|--------------------------|
|--------------------|--------------------------|
|--------------------|--------------------------|


  E5                E5
  W                 +W
|-----------------|---------------------|
|-----------------|---------------------|
|-9---------------|-(9)-----------------|
|-9---------------|-(9)-----------------|
|-7---------------|-(7)-----------------|
|-----------------|---------------------|
|
| E E E E E E E E    E  E E E E E E E
|-----------------|---------------------|
|-----------------|---------------------|
|-9-9-9-9-9-9-9-9-|--9--9-9-9-9-9-9-9---|
|-9-9-9-9-9-9-9-9-|--9--9-9-9-9-9-9-9---|
|-7-7-7-7-7-7-7-7-|--7--7-7-7-7-7-7-7---|
|-0-0-0-0-0-0-0-0-|--0--0-0-0-0-0-0-0---|
|
| W                 +W
|-----------------|---------------------|
|-5---------------|-(5)-----------------|
|-----------------|---------------------|
|-----------------|---------------------|
|-----------------|---------------------|
|-----------------|---------------------|


 Verse
  E5                  E5
  Gtrs I, II
  E  E E E E E  E E   E E E E E E E E
|-------------------|-----------------|
|-------------------|-----------------|
|-9--9-9-9-9-9--9-9-|-9-9-9-9-9-9-9-9-|
|-9--9-9-9-9-9--9-9-|-9-9-9-9-9-9-9-9-|
|-7--7-7-7-7-7--7-7-|-7-7-7-7-7-7-7-7-|
|-------------------|-----------------|
|
| Gtr IV
| Q.     E E Q.       W
|-------------------|-----------------|
|-5------5-5-7------|-9---------------|
|-------------------|-----------------|
|-------------------|-----------------|
|-------------------|-----------------|
|-------------------|-----------------|


  G#5                      E5
   E E   E   E  E E  E E   E E E E  E   E E E
|------------------------|--------------------|
|------------------------|--------------------|
|------------------------|-9-9-9-9--9---9-9-9-|
|--7-7---7---7--7-7--7-7-|-9-9-9-9--9---9-9-9-|
|--7-7---7---7--7-7--7-7-|-7-7-7-7--7---7-7-7-|
|--5-5---5---5--5-5--5-5-|--------------------|
|
|  Q    +E   E  Q    Q     H       +E   E E E
|------------------------|--------------------|
|-10---(10)-10-10---12---|-9-------(9)-10-9-5-|
|------------------------|--------------------|
|------------------------|--------------------|
|------------------------|--------------------|
|------------------------|--------------------|


  B5                B5
  Gtrs I, II
  E E E E E E E E    E  E E E E E E E
|-----------------|-------------------|
|-----------------|-------------------|
|-----------------|-------------------|
|-9-9-9-9-9-9-9-9-|--9--9-9-9-9-9-9-9-|
|-9-9-9-9-9-9-9-9-|--9--9-9-9-9-9-9-9-|
|-7-7-7-7-7-7-7-7-|--7--7-7-7-7-7-7-7-|
|
| Gtr IV
| W                 +W
|-----------------|-------------------|
|-7---------------|-(7)---------------|
|-----------------|-------------------|
|-----------------|-------------------|
|-----------------|-------------------|
|-----------------|-------------------|


  E5                 G#5
  Gtrs I, II
   E E E E E E E E    E E   E   E     E E E E
|------------------|--------------------------|
|------------------|--------------------------|
|--9-9-9-9-9-9-9-9-|--------------------------|
|--9-9-9-9-9-9-9-9-|--7-7---7---7-----7-7-7-7-|
|--7-7-7-7-7-7-7-7-|--7-7---7---7-----7-7-7-7-|
|------------------|--5-5---5---5-----5-5-5-5-|
|
| Gtr IV
|  W                  Q    +E   S  S  Q   Q
|------------------|--------------------------|
|-12---------------|-10---(10)-10-12-10---9---|
|------------------|--------------------------|
|------------------|--------------------------|
|------------------|--------------------------|
|------------------|--------------------------|


  B5                B5
  E E E E E E E E    E  E E E E E E E
|-----------------|-------------------|
|-----------------|-------------------|
|-----------------|-------------------|
|-9-9-9-9-9-9-9-9-|--9--9-9-9-9-9-9-9-|
|-9-9-9-9-9-9-9-9-|--9--9-9-9-9-9-9-9-|
|-7-7-7-7-7-7-7-7-|--7--7-7-7-7-7-7-7-|
|
| W                 +H.           E E
|-----------------|-------------------|
|-7---------------|-(7)-----------7-9-|
|-----------------|-------------------|
|-----------------|-------------------|
|-----------------|-------------------|
|-----------------|-------------------|


  E5                       G#5
  Gtrs I, II
   E E   E   E  E E  E E    E  E E E E E  E  E
|------------------------|---------------------|
|------------------------|---------------------|
|--9-9---9---9--9-9--9-9-|---------------------|
|--9-9---9---9--9-9--9-9-|--7--7-7-7-7-7--7--7-|
|--7-7---7---7--7-7--7-7-|--7--7-7-7-7-7--7--7-|
|------------------------|--5--5-5-5-5-5--5--5-|
|
| Gtr IV
|  Q    +E   E  E Q.        H.            E  E
|------------------------|---------------------|
|-12---(12)-12-10-9------|-10------------12-10-|
|------------------------|---------------------|
|------------------------|---------------------|
|------------------------|---------------------|
|------------------------|---------------------|


  E5                  B5
  E E  E  E E E E E   E  E E E E E E E
|-------------------|-------------------|
|-------------------|-------------------|
|-9-9--9--9-9-9-9-9-|-------------------|
|-9-9--9--9-9-9-9-9-|-9--9-9-9-9-9-9-9--|
|-7-7--7--7-7-7-7-7-|-9--9-9-9-9-9-9-9--|
|-------------------|-7--7-7-7-7-7-7-7--|
|
| Q   +E  E E Q   E   H.           Q
|-------------------|-------------------|
|-9---(9)-7-5-7---9-|-7-----------------|
|-------------------|--------------4----|
|-------------------|-------------------|
|-------------------|-------------------|
|-------------------|-------------------|


  B5                  B5                 E5                E5
  Gtrs I, II
  E E E E  E E  E E    E E E E E E E E   E E E E E E E E    E  E E E E E E E
|-------------------|------------------|-----------------|--------------------|
|-------------------|------------------|-----------------|--------------------|
|-------------------|------------------|-9-9-9-9-9-9-9-9-|--9--9-9-9-9-9-9-9--|
|-9-9-9-9--9-9--9-9-|--9-9-9-9-9-9-9-9-|-9-9-9-9-9-9-9-9-|--9--9-9-9-9-9-9-9--|
|-9-9-9-9--9-9--9-9-|--9-9-9-9-9-9-9-9-|-7-7-7-7-7-7-7-7-|--7--7-7-7-7-7-7-7--|
|-7-7-7-7--7-7--7-7-|--7-7-7-7-7-7-7-7-|-----------------|--------------------|
|
| Gtr IV
| E Q   Q.      Q      E Q   Q   Q   E   W                 +W
|-------------------|------------------|-----------------|--------------------|
|-7-7---9------10---|-10-9---7---5---4-|-5---------------|-(5)----------------|
|-------------------|------------------|-----------------|--------------------|
|-------------------|------------------|-----------------|--------------------|
|-------------------|------------------|-----------------|--------------------|
|-------------------|------------------|-----------------|--------------------|


 Bagpipe Break
  E5          E5
  Gtrs I, II
               >
   W          +W            W                 W
|-----------|-------------|-----------------|-------------|
|-----------|-------------|-----------------|-------------|
|--9--------|-(9)---------|-----------------|-------------|
|--9--------|-(9)---------|-----------------|-------------|
|--7--------|-(7)---------|-----------------|-------------|
|-----------|-------------|-----------------|-------------|
|
| Gtr IV
|  W           H.      Q    Q  +E  E E Q.     H.      Q
|-----------|-------------|-----------------|-------------|
|-12--------|-12-------9--|-5--(5)---5-7----|-9-------7---|
|-----------|-------------|--------4--------|-------------|
|-----------|-------------|-----------------|-------------|
|-----------|-------------|-----------------|-------------|
|-----------|-------------|-----------------|-------------|


  Gtr IV
  Q  +E  E E Q.     H     Q   Q    W          +H.       Q
|-----------------|--------------|----------|---------------|
|-5--(5)---5-7----|-9----10--12--|-7--------|-(7)------12---|
|--------4--------|--------------|----------|---------------|
|-----------------|--------------|----------|---------------|
|-----------------|--------------|----------|---------------|
|-----------------|--------------|----------|---------------|


  E5                     G#5
  Gtr IV
   Q.      E  E Q.        H.            E  E
|----------------------|---------------------|
|-12------12-12-9------|-10------------12-10-|
|----------------------|---------------------|
|----------------------|---------------------|
|----------------------|---------------------|
|----------------------|---------------------|
|
| Gtr II
|     PM|     PM|    PM      PM|   PM|     PM
|  E  E E  E  E E  E E    E  E E E E E  E  E
|----------------------|---------------------|
|----------------------|---------------------|
|--9-------9-------9---|---------------------|
|--9--9-9--9--9-9--9-9-|--7------7------7----|
|--7--7-7--7--7-7--7-7-|--7--7-7-7-7-7--7--7-|
|----------------------|--5--5-5-5-5-5--5--5-|


  E5                  B5
  Q   +E  E E Q   E   W
|-------------------|-----------------|
|-9---(9)-7-5-7---9-|-7---------------|
|-------------------|-----------------|
|-------------------|-----------------|
|-------------------|-----------------|
|-------------------|-----------------|
|
|   PM|     PM|   PM    PM|   PM|   PM
| E E  E  E E E E E   E E E E E E E E
|-------------------|-----------------|
|-------------------|-----------------|
|-------------------|-----------------|
|-9-------9-----9---|-9-----9-----9---|
|-7-7--7--7-7-7-7-7-|-9-9-9-9-9-9-9-9-|
|-0-0--0--0-0-0-0-0-|-7-7-7-7-7-7-7-7-|


  B5                  B5                 E5                E5
  Gtrs I, II
  E E E E  E E  E E    E E E E E E E E   E E E E E E E E    E  E E E E E E E
|-------------------|------------------|-----------------|--------------------|
|-------------------|------------------|-----------------|--------------------|
|-------------------|------------------|-9-9-9-9-9-9-9-9-|--9--9-9-9-9-9-9-9--|
|-9-9-9-9--9-9--9-9-|--9-9-9-9-9-9-9-9-|-9-9-9-9-9-9-9-9-|--9--9-9-9-9-9-9-9--|
|-9-9-9-9--9-9--9-9-|--9-9-9-9-9-9-9-9-|-7-7-7-7-7-7-7-7-|--7--7-7-7-7-7-7-7--|
|-7-7-7-7--7-7--7-7-|--7-7-7-7-7-7-7-7-|-----------------|--------------------|
|
| Gtr IV
| E Q   Q.      Q      E Q   Q   Q   E   W                 +W
|-------------------|------------------|-----------------|--------------------|
|-7-7---9------10---|-10-9---7---5---4-|-5---------------|-(5)----------------|
|-------------------|------------------|-----------------|--------------------|
|-------------------|------------------|-----------------|--------------------|
|-------------------|------------------|-----------------|--------------------|
|-------------------|------------------|-----------------|--------------------|


 Chorus
  E5                 G#5
  Gtrs I, II
   E E E E E E E E    E  E E E E E E E
|------------------|-------------------|
|------------------|-------------------|
|--9-9-9-9-9-9-9-9-|-------------------|
|--9-9-9-9-9-9-9-9-|--7--7-7-7-7-7-7-7-|
|--7-7-7-7-7-7-7-7-|--7--7-7-7-7-7-7-7-|
|------------------|--5--5-5-5-5-5-5-5-|
|
| Gtr IV
|  W                  H.           Q
|------------------|-------------------|
|-12---------------|-12------------9---|
|------------------|-------------------|
|------------------|-------------------|
|------------------|-------------------|
|------------------|-------------------|


  E5                   C#5
  E E  E  E E E  E E    E   E  E  E  E  E  E  E
|--------------------|---------------------------|
|--------------------|---------------------------|
|-9-9--9--9-9-9--9-9-|---------------------------|
|-9-9--9--9-9-9--9-9-|-11--11-11-11-11-11-11-11--|
|-7-7--7--7-7-7--7-7-|-11--11-11-11-11-11-11-11--|
|--------------------|--9---9--9--9--9--9--9--9--|
|
| Q   +E  E E Q.        H.                 Q
|--------------------|---------------------------|
|-5---(5)---5-7------|--9------------------7-----|
|---------4----------|---------------------------|
|--------------------|---------------------------|
|--------------------|---------------------------|
|--------------------|---------------------------|


  E5                   C#5
  Gtrs I, II
  E E  E  E E E  E E    E  E  E  E  E  E  E  E
|--------------------|-------------------------|
|--------------------|-------------------------|
|-9-9--9--9-9-9--9-9-|-------------------------|
|-9-9--9--9-9-9--9-9-|-11-11-11-11-11-11-11-11-|
|-7-7--7--7-7-7--7-7-|-11-11-11-11-11-11-11-11-|
|--------------------|--9--9--9--9--9--9--9--9-|
|
| Gtr IV
| Q   +E  E E Q.        H           Q     Q
|--------------------|-------------------------|
|-5---(5)---5-7------|--9----------10----12----|
|---------4----------|-------------------------|
|--------------------|-------------------------|
|--------------------|-------------------------|
|--------------------|-------------------------|


  B5                B5
  E E E E E E E E    E  E E E E E  E E
|-----------------|---------------------|
|-----------------|---------------------|
|-----------------|---------------------|
|-9-9-9-9-9-9-9-9-|--9--9-9-9-9-9--9-9--|
|-9-9-9-9-9-9-9-9-|--9--9-9-9-9-9--9-9--|
|-7-7-7-7-7-7-7-7-|--7--7-7-7-7-7--7-7--|
|
| W                 +H.            Q
|-----------------|---------------------|
|-7---------------|-(7)-----------12----|
|-----------------|---------------------|
|-----------------|---------------------|
|-----------------|---------------------|
|-----------------|---------------------|


  E5                       G#5
  Gtrs I, II
   E E   E   E  E E  E E    E  E E E E E  E  E
|------------------------|---------------------|
|------------------------|---------------------|
|--9-9---9---9--9-9--9-9-|---------------------|
|--9-9---9---9--9-9--9-9-|--7--7-7-7-7-7--7--7-|
|--7-7---7---7--7-7--7-7-|--7--7-7-7-7-7--7--7-|
|------------------------|--5--5-5-5-5-5--5--5-|
|
| Gtr IV
|  Q    +E   E  E Q.        H.            E  E
|------------------------|---------------------|
|-12---(12)-12-10-9------|-10------------12-10-|
|------------------------|---------------------|
|------------------------|---------------------|
|------------------------|---------------------|
|------------------------|---------------------|


  E5                  B5
  E E  E  E E E E E   E  E E E E E E E
|-------------------|-------------------|
|-------------------|-------------------|
|-9-9--9--9-9-9-9-9-|-------------------|
|-9-9--9--9-9-9-9-9-|-9--9-9-9-9-9-9-9--|
|-7-7--7--7-7-7-7-7-|-9--9-9-9-9-9-9-9--|
|-0-0--0--0-0-0-0-0-|-7--7-7-7-7-7-7-7--|
|
| Q   +E  E E Q   E   H.           Q
|-------------------|-------------------|
|-9---(9)-7-5-7---9-|-7-----------------|
|-------------------|--------------4----|
|-------------------|-------------------|
|-------------------|-------------------|
|-------------------|-------------------|


  B5                  B5
  Gtr I
  E E E  E E E E  E   E E  E  E E E   E E
|-------------------|---------------------|
|-------------------|---------------------|
|-------------------|---------------------|
|-9-9-9--9-9-9-9--9-|-9-9--9--9-9-9---9-9-|
|-9-9-9--9-9-9-9--9-|-9-9--9--9-9-9---9-9-|
|-7-7-7--7-7-7-7--7-|-7-7--7--7-7-7---7-7-|
|
| Gtr II
| E E E  E E E E  E   E E  E  E E E   E E
|-------------------|---------------------|
|-------------------|---------------------|
|-------------------|---------------------|
|-9-9-9--9-9-9-9--9-|-9-9--9--9-9-9---9-9-|
|-9-9-9--9-9-9-9--9-|-9-9--9--9-9-9---9-9-|
|-7-7-7--7-7-7-7--7-|-7-7--7--7-7-7---7-7-|
|
| Gtr IV
| Q   Q.     Q    E   E E +Q.     S S E E
|-------------------|---------------------|
|-7---7------9---10-|-9-7-(7)-----7-9-5-4-|
|-------------------|---------------------|
|-------------------|---------------------|
|-------------------|---------------------|
|-------------------|---------------------|


  E5                E5
  E E E E E E E E    E  E E E E E E E
|-----------------|-------------------|
|-----------------|-------------------|
|-9-9-9-9-9-9-9-9-|--9--9-9-9-9-9-9-9-|
|-9-9-9-9-9-9-9-9-|--9--9-9-9-9-9-9-9-|
|-7-7-7-7-7-7-7-7-|--7--7-7-7-7-7-7-7-|
|-----------------|-------------------|
|
| E E E E E E E E    E  E E E E E E E
|-----------------|-------------------|
|-----------------|-------------------|
|-----------------|-------------------|
|-2-2-2-2-2-2-2-2-|--2--2-2-2-2-2-2-2-|
|-2-2-2-2-2-2-2-2-|--2--2-2-2-2-2-2-2-|
|-0-0-0-0-0-0-0-0-|--0--0-0-0-0-0-0-0-|
|
| W                 +W
|-----------------|-------------------|
|-5---------------|-(5)---------------|
|-----------------|-------------------|
|-----------------|-------------------|
|-----------------|-------------------|
|-----------------|-------------------|


                                      H.=H       Q=133
  B5                B5                G#5        E5
  Gtr I
  E E E E E E E E   E E E E E E E E   W           W
|-----------------|-----------------|----------|--------|
|-----------------|-----------------|----------|--------|
|-----------------|-----------------|----------|--------|
|-9-9-9-9-9-9-9-9-|-9-9-9-9-9-9-9-9-|-7--------|--2-----|
|-9-9-9-9-9-9-9-9-|-9-9-9-9-9-9-9-9-|-7--------|--2-----|
|-7-7-7-7-7-7-7-7-|-7-7-7-7-7-7-7-7-|-5--------|--0-----|
|
| Gtr II
| E E E E E E E E   E E E E E E E E   W           W
|-----------------|-----------------|----------|--------|
|-----------------|-----------------|----------|--------|
|-----------------|-----------------|----------|--9-----|
|-9-9-9-9-9-9-9-9-|-9-9-9-9-9-9-9-9-|-7--------|--9-----|
|-9-9-9-9-9-9-9-9-|-9-9-9-9-9-9-9-9-|-7--------|--7-----|
|-7-7-7-7-7-7-7-7-|-7-7-7-7-7-7-7-7-|-5--------|--------|
|
| Gtr IV
| H       Q   Q     E H       E E E   W          +W
|-----------------|-----------------|----------|--------|
|-7-------9---7---|-4-7-------7-5-4-|-5--------|-(5)----|
|-----------------|-----------------|----------|--------|
|-----------------|-----------------|----------|--------|
|-----------------|-----------------|----------|--------|
|-----------------|-----------------|----------|--------|


  E5           E5
  +W           +H.      Q
|------------|-------------*|
|------------|-------------*|
|------------|-------------*|
|-(2)--------|-(2)------2--*|
|-(2)--------|-(2)------2--*|
|-(0)--------|-(0)------0--*|
|
| +W           +H.      Q
|------------|-------------*|
|------------|-------------*|
|-(9)--------|-(9)------9--*|
|-(9)--------|-(9)------9--*|
|-(7)--------|-(7)------7--*|
|------------|-------------*|
|
| +W           +H.      Q
|------------|-------------*|
|-(5)--------|-(5)------5--*|
|------------|-------------*|
|------------|-------------*|
|------------|-------------*|
|------------|-------------*|



Duration Legend
---------------
W - whole; H - half; Q - quarter; E - 8th; S - 16th; T - 32nd; X - 64th; a - acciaccatura
+ - note tied to previous; . - note dotted; .. - note double dotted
Uncapitalized letters represent notes that are staccato (1/2 duration)
Irregular groupings are notated above the duration line
Duration letters will always appear directly above the note/fret number it represents the
duration for.  Duration letters with no fret number below them represent rests.  Multi-
bar rests are notated in the form Wxn, where n is the number of bars to rest for.  Low
melody durations appear below the staff

Tablature Legend
----------------
 h   - hammer-on
 p   - pull-off
 b   - bend
 pb  - pre-bend
 r   - bend release (if no number after the r, then release immediately)
 /\  - slide into or out of (from/to "nowhere")
 s   - legato slide
 S   - shift slide
 - natural harmonic
[n]  - artificial harmonic
n(n) - tapped harmonic
 ~   - vibrato
 tr  - trill
 T   - tap
 TP  - trem. picking
 PM  - palm muting
\n/  - tremolo bar dip; n = amount to dip
 \n  - tremolo bar down
 n/  - tremolo bar up
/n\  - tremolo bar inverted dip
 =   - hold bend; also acts as connecting device for hammers/pulls
 <> - volume swell (louder/softer)
 x   - on rhythm slash represents muted slash
 o   - on rhythm slash represents single note slash

Misc Legend
-----------
 |  - bar
||  - double bar
||o - repeat start
o|| - repeat end
*|  - double bar (ending)
 :  - bar (freetime)
 $  - Segno
 &  - Coda
Tempo markers -  = BPM(8/16=s8/s16), where s8 = swing 8ths, s16 = swing 16ths

Related for The Fields Of Athenry tab