Song name
# A B C D E F G H I J K L M N O P Q R S T U V W X Y Z

Drowning Fish - Lonely Hearts tab

this is my first tab so feel free to send corrections to giantturtleofflame2007@yahoo.com

intro
|----------------------------------------|
|----------------------------------------|
|----------------------------------------|
|-3-3-3-3-3-3-3-3-3-3-3-3-3-3-3-3-3-2-2-5|
|3-3-3-3-3-0-0-0-0-0-1-1-1-1-1-3-3-3-3-3-|
|----------------------------------------|

|----------------------------------------|
|----------------------------------------|
|----------------------------------------|
|-3-3-3-3-3-3-3-3-3-3-3-3-3-3-3-5-5-5-3-2|
|3-3-3-3-3-0-0-0-0-0-1-1-1-1-1---3-3-3-3-|
|----------------------------------------|

intro part two
|----------------------------------------|
|----------------------------------------|
|----------------------------------------|
|5-5-5-5-7-7-7-7-7-5-5-5-5-7-7-7-7-------|
|----------------------------------------|
|----------------------------------------|

|----------------------------------------|
|----------------------------------------|
|----------------------------------------|
|7-7-7-7-8-8-8-8-8-8-8-8-8-8-8-7-5-------|
|----------------------------------------|
|----------------------------------------|

verse
|-------------------|
|-------------------|
|-------2---3---5---|
|---3---2---3---5---|
|---3---0---1---3---|
|---1---------------|

chorus
|-------------------|
|-------------------|
|-------2---3---5---|
|---3---2---3---5---|
|---3---0---1---3---|
|---1---------------|

that's pretty much it.  figure out the strumming by listening to the song. when you get 
all together itll be balls out.
Tap to rate this tab
# A B C D E F G H I J K L M N O P Q R S T U V W X Y Z