Guitaretab - guitar tabs
Song name
# A B C D E F G H I J K L M N O P Q R S T U V W X Y Z

Dru Hill - You Are Everything tab

"You Are Everything" by Dru Hill 
Tabbed by J-Luke

Chords Used:

     Bm       Em        F#m
E || 2        0         2
B || 3        0         2
G || 4        0         2
D || 4        2         4
A || 2        2         4
E || X        0         2

This is what is played throughout the entire song. The other part that you
might or might not hear in the background is completely an ad-lib part.
[ Tab from: ]
E ||---------------------------0------||-------------(2)0------||
B ||------3-------3-------3------3----||--------------0--------||
G ||--------4-------4-------4---------||---------0----0--------||
D ||-----4-------4-------4------------||------2-------2--------||
A ||-2--------------------------------||-----------------------||
E ||----------------------------------||--0--------------------||

E ||--------------------||
B ||------(0)2----------||
G ||------------3-------||
D ||--------------------||         *NOTE: for the numbers that are in
A ||--------------------||                perenthesis, you need to hammer
E ||--(0)2--------------||                on from that note to the note
                                          that is right next to it.

Well everybody, that's it. Piece of cake huh!? Yea, that's how most r&b songs are 
to be. Dru Hill's first album is filled with some great acoustics.

If anyone has tabs to their songs "How Deep is Your Love", "Holding You", and/or "I'm 
be great if you could post them up. Thanks in advance.

Related for You Are Everything tab