Song name
# A B C D E F G H I J K L M N O P Q R S T U V W X Y Z

Dubliners - Finnegans Wake tab

Finnegans wake - The Dubliners 

This is a Tab for Mandolin only.

Slow intro:
|-------------------------------------------------------------------|
|--------------0-0-2-3-2-0---------------------0-0-2-3-2-0--0-0-2-3-|
|-5-2-2-2-2-0-2-----------5-2-0-0-5-2-2-2-2-0-2------------5--------|
|-------------------------------------------------------------------|
Slow intro Pt.2

|-------------------------------------------------------------------|
|-3-3-3-3-5-3-2-0--3-3-3-3-5-3-2-0--3-3-3-3-5-3-2-0--0-0-0-0-0-0-2-3|
|-----------------5----------------5----------------5-------5-------|
|-------------------------------------------------------------------|

Chorus

|-------------------------------------------------------------------|
|------------0-0-2-3-2-0--------------------0-0-2-3-2-0--0-0-2-3----|
|-0-2-2-2-0-2------------5-2-0-0-5-2-2-2-0-2------------5-----------|
|-------------------------------------------------------------------|

|-------------------------------------------------------------------|
|-3-3-3-3-5-3-2-0--3-3-3-3-5-3-2-0--3-3-3-3-5-3-2-0--0-0-0-0-0-0-2-3|
|-----------------5----------------5----------------5-------5-------|
|-------------------------------------------------------------------|

|-------------------------------------------------------------------|
|--------------0-0-2-3-2-0---------------------0-0-2-3-2-0--0-0-2-3-|
|-5-2-2-2-2-0-2-----------5-2-0-0-5-2-2-2-2-0-2------------5--------|
|-------------------------------------------------------------------|

Repeat as necessary.
Any problems email me at micealcwilson@gmail.com
Tap to rate this tab
# A B C D E F G H I J K L M N O P Q R S T U V W X Y Z