Song name
# A B C D E F G H I J K L M N O P Q R S T U V W X Y Z

Duffy - Serious tab

Artist: Scars On Broadway
Album: Scars On Broadway
Song: Serious
Tabbed by: 6M6M6


Tuning: C# G# C# F# A# D#


. - palm muted
x - dead note
\ - slide down




D#|--------------------------------|--------------------------------|
A#|--------------------------------|--------------------------------|
F#|--------------------------------|--------------------------------|
C#|-0-0--0-0-0-0-0-0-0-0-0-0-0-0-0-|-0-0--0-0-0-0-0-0-0-0-0-0-0-0-0-|
G#|-0-0--0-0-0-0-0-0-0-0-0-0-0-0-0-|-0-0--0-0-0-0-0-0-0-0-0-0-0-0-0-|
C#|-0-0--0-0-0-0-0-0-0-0-0-0-0-0-0-|-0-0--0-0-0-0-0-0-0-0-0-0-0-0-0-|
	 . . . . . . . . . . . . .	  . . . . . . . . . . . . .


D#|--------------------------------|--------------------------------|
A#|--------------------------------|--------------------------------|
F#|--------------------------------|--------------------------------|
C#|-8-8--8-8-8-8-8-8-8-8-8-8-8-8-8-|-0-0--0-0-0-0-0-0-0-0-0-0-0-0-0-|
G#|-8-8--8-8-8-8-8-8-8-8-8-8-8-8-8-|-0-0--0-0-0-0-0-0-0-0-0-0-0-0-0-|
C#|-8-8--8-8-8-8-8-8-8-8-8-8-8-8-8-|-0-0--0-0-0-0-0-0-0-0-0-0-0-0-0-|
	 . . . . . . . . . . . . .	  . . . . . . . . . . . . .


D#|--------------------------------|--------------------------------|
A#|--------------------------------|--------------------------------|
F#|--------------------------------|--------------------------------|
C#|-0-0--0-0-0-0-0-0-0-0-0-0-0-0-0-|-0-0--0-0-0-0-0-0-0-0-0-0-0-0-0-|
G#|-0-0--0-0-0-0-0-0-0-0-0-0-0-0-0-|-0-0--0-0-0-0-0-0-0-0-0-0-0-0-0-|
C#|-0-0--0-0-0-0-0-0-0-0-0-0-0-0-0-|-0-0--0-0-0-0-0-0-0-0-0-0-0-0-0-|
	 . . . . . . . . . . . . .	  . . . . . . . . . . . . .


D#|--------------------------------|--------------------------------|
A#|--------------------------------|--------------------------------|
F#|--------------------------------|--------------------------------|
C#|-8-8--8-8-8-8-8-8-8-8-8-8-8-8-8-|-0-0--0-0-0-0-0-0-0-0-0-0-0-0-0-|
G#|-8-8--8-8-8-8-8-8-8-8-8-8-8-8-8-|-0-0--0-0-0-0-0-0-0-0-0-0-0-0-0-|
C#|-8-8--8-8-8-8-8-8-8-8-8-8-8-8-8-|-0-0--0-0-0-0-0-0-0-0-0-0-0-0-0-|
	 . . . . . . . . . . . . .	  . . . . . . . . . . . . .


D#|-6------------------5---------6-|-6------------------------------|
A#|-8---------8--------6---------6-|-8----------8-------------------|
F#|-7---------7--------5---------7-|-7----------7-------------------|
C#|-8--------10--------7---------8-|-8---------10-------------------|
G#|--------------------------------|--------------------------------|
C#|--------------------------------|---------------------15\--------|



D#|--------------------------------|--------------------------------|
A#|--------------------------------|--------------------------------|
F#|--------------------------------|--------------------------------|
C#|-0-0--0-0-0-0-0-0-0-0-0-0-0-0-0-|-0-0--0-0-0-0-0-0-0-0-0-0-0-0-0-|
G#|-0-0--0-0-0-0-0-0-0-0-0-0-0-0-0-|-0-0--0-0-0-0-0-0-0-0-0-0-0-0-0-|
C#|-0-0--0-0-0-0-0-0-0-0-0-0-0-0-0-|-0-0--0-0-0-0-0-0-0-0-0-0-0-0-0-|
	 . . . . . . . . . . . . .	  . . . . . . . . . . . . .


D#|--------------------------------|--------------------------------|
A#|--------------------------------|--------------------------------|
F#|--------------------------------|--------------------------------|
C#|-8-8--8-8-8-8-8-8-8-8-8-8-8-8-8-|-0-0--0-0-0-0-0-0-0-0-0-0-0-0-0-|
G#|-8-8--8-8-8-8-8-8-8-8-8-8-8-8-8-|-0-0--0-0-0-0-0-0-0-0-0-0-0-0-0-|
C#|-8-8--8-8-8-8-8-8-8-8-8-8-8-8-8-|-0-0--0-0-0-0-0-0-0-0-0-0-0-0-0-|
	 . . . . . . . . . . . . .	  . . . . . . . . . . . . .


D#|-6------------------5---------6-|-6------------------------------|
A#|-8---------8--------6---------6-|-8----------8-------------------|
F#|-7---------7--------5---------7-|-7----------7-------------------|
C#|-8--------10--------7---------8-|-8---------10-------------------|
G#|--------------------------------|--------------------------------|
C#|--------------------------------|---------------------15\--------|



D#|-----------------------------------------------------------------|
A#|-----------------------------------------------------------------|
F#|-------9-------------10-------------9-------------12-------------|
C#|-------x--------------x-------------x--------------x-------------|
G#|-------7--------------8-------------7-------------10-------------|
C#|-0-0-------0-0-0-0--------0-0-0-0-------0-0-0-0------------------|
    . .       . . . .        . . . .       . . . .


D#|-----------------------------------------------------------------|
A#|-----------------------------------------------------------------|
F#|-----------9-------------10-------------9-------------7----------|
C#|-----------x--------------x-------------x-------------x----------|
G#|-----------7--------------8-------------7-------------5----------|
C#|-0-0-0-0-------0-0-0-0--------0-0-0-0-------0-0-0-0--------------|
    . . . .       . . . .        . . . .       . . . .
 

D#|-----------------------------------------------------------------|
A#|-----------------------------------------------------------------|
F#|-------9-------------10-------------9-------------12-------------|
C#|-------x--------------x-------------x--------------x-------------|
G#|-------7--------------8-------------7-------------10-------------|
C#|-0-0-------0-0-0-0--------0-0-0-0-------0-0-0-0------------------|
    . .       . . . .        . . . .       . . . .


D#|-----------------------------------------------------------------|
A#|-----------------------------------------------------------------|
F#|-----------9-------------10-------------9-------------7----------|
C#|-----------x--------------x-------------x-------------x----------|
G#|-----------7--------------8-------------7-------------5----------|
C#|-0-0-0-0-------0-0-0-0--------0-0-0-0-------0-0-0-0--------------|
    . . . .       . . . .        . . . .       . . . .


D#|-----------------------------------------------------------------|
A#|-----------------------------------------------------------------|
F#|-------9-------------10-------------9-------------12-------------|
C#|-------x--------------x-------------x--------------x-------------|
G#|-------7--------------8-------------7-------------10-------------|
C#|-0-0---------0-0------------0-0-----------0-0--------------------|
    . .         . .            . .           . . 


D#|-----------------------------------------------------------------|
A#|-----------------------------------------------------------------|
F#|-------9-------------10-------------9--------------7-------------|
C#|-------x--------------x-------------x--------------x-------------|
G#|-------7--------------8-------------7--------------5-------------|
C#|-0-0---------0-0------------0-0-----------0-0--------------------|
    . .         . .            . .           . . 


D#|-----------------------------------------------------------------|
A#|-----------------------------------------------------------------|
F#|-------9-------------10-------------9-------------12-------------|
C#|-------x--------------x-------------x--------------x-------------|
G#|-------7--------------8-------------7-------------10-------------|
C#|-0-0---------0-0------------0-0-----------0-0--------------------|
    . .         . .            . .           . . 


D#|-----------------------------------------------------------------|
A#|-----------------------------------------------------------------|
F#|-------9-------------10-------------9--------------7-------------|
C#|-------x--------------x-------------x--------------x-------------|
G#|-------7--------------8-------------7--------------5-------------|
C#|-0-0---------0-0------------0-0-----------0-0--------------------|
    . .         . .            . .           . . 


D#|-----------------------------------------------------------------|
A#|-----------------------------------------------------------------|
F#|-12---12-12-12-12-12-12-12-12---12-12-12-12----------------------|
C#|-12---12-12-12-12-12-12-12-12---12-12-12-12----------------------|
G#|-10---10-10-10-10-10-10-10-10---10-10-10-10----------------------|
C#|-----------------------------------------------------------------|
          .  .  .  .  .  .  .  .


D#|-----------------------------------------------------------------|
A#|-----------------------------------------------------------------|
F#|-----------------------------------------------------------------|
C#|-10---10-10-10-10-10-10-10-10---10-10-10-10----------------------|
G#|-10---10-10-10-10-10-10-10-10---10-10-10-10----------------------|
C#|-10---10-10-10-10-10-10-10-10---10-10-10-10----------------------|
          .  .  .  .  .  .  .  .


D#|-----------------------------------------------------------------|
A#|-----------------------------------------------------------------|
F#|-10---10-10-10-10-10-10-10-10---10-10-10-10----------------------|
C#|-10---10-10-10-10-10-10-10-10---10-10-10-10----------------------|
G#|--8----8--8--8--8--8--8--8--8----8--8--8--8----------------------|
C#|-----------------------------------------------------------------|
          .  .  .  .  .  .  .  .


D#|-----------------------------------------------------------------|
A#|-----------------------------------------------------------------|
F#|-----------------------------------------------------------------|
C#|-8---8-8-8-8-8-8-8-8---8-8-8-8-----------------------------------|
G#|-8---8-8-8-8-8-8-8-8---8-8-8-8-----------------------------------|
C#|-8---8-8-8-8-8-8-8-8---8-8-8-8-----------------------------------|
        . . . . . . . .


D#|-----------------------------------------------------------------|
A#|-----------------------------------------------------------------|
F#|-12---12-12-12-12-12-12-12-12---12-12-12-12----------------------|
C#|-12---12-12-12-12-12-12-12-12---12-12-12-12----------------------|
G#|-10---10-10-10-10-10-10-10-10---10-10-10-10----------------------|
C#|-----------------------------------------------------------------|
          .  .  .  .  .  .  .  .


D#|-----------------------------------------------------------------|
A#|-----------------------------------------------------------------|
F#|-----------------------------------------------------------------|
C#|-10---10-10-10-10-10-10-10-10---10-10-10-10----------------------|
G#|-10---10-10-10-10-10-10-10-10---10-10-10-10----------------------|
C#|-10---10-10-10-10-10-10-10-10---10-10-10-10----------------------|
          .  .  .  .  .  .  .  .


D#|-----------------------------------------------------------------|
A#|-----------------------------------------------------------------|
F#|-10---10-10-10-10-10-10-10-10---10-10-10-10----------------------|
C#|-10---10-10-10-10-10-10-10-10---10-10-10-10----------------------|
G#|--8----8--8--8--8--8--8--8--8----8--8--8--8----------------------|
C#|-----------------------------------------------------------------|
          .  .  .  .  .  .  .  .


D#|-----------------------------------------------------------------|
A#|-----------------------------------------------------------------|
F#|-----------------------------------------------------------------|
C#|-8---8-8-8-8-8-8-8-8---8-8-8-8-----------------------------------|
G#|-8---8-8-8-8-8-8-8-8---8-8-8-8-----------------------------------|
C#|-8---8-8-8-8-8-8-8-8---8-8-8-8-----------------------------------|
        . . . . . . . .


D#|-----------------------------------------------------------------|
A#|-----------------------------------------------------------------|
F#|-12---12-12-12-12-12-12-12-12---12-12-12-12----------------------|
C#|-12---12-12-12-12-12-12-12-12---12-12-12-12----------------------|
G#|-10---10-10-10-10-10-10-10-10---10-10-10-10----------------------|
C#|-----------------------------------------------------------------|
          .  .  .  .  .  .  .  .


D#|-----------------------------------------------------------------|
A#|-----------------------------------------------------------------|
F#|-----------------------------------------------------------------|
C#|-10---10-10-10-10-10-10-10-10---10-10-10-10----------------------|
G#|-10---10-10-10-10-10-10-10-10---10-10-10-10----------------------|
C#|-10---10-10-10-10-10-10-10-10---10-10-10-10----------------------|
          .  .  .  .  .  .  .  .


D#|-----------------------------------------------------------------|
A#|-----------------------------------------------------------------|
F#|-------9-------------10-------------9-------------12-------------|
C#|-------x--------------x-------------x--------------x-------------|
G#|-------7--------------8-------------7-------------10-------------|
C#|-0-0-------0-0-0-0--------0-0-0-0-------0-0-0-0------------------|
    . .       . . . .        . . . .       . . . .


D#|-----------------------------------------------------------------|
A#|-----------------------------------------------------------------|
F#|-----------9-------------10-------------9-------------7----------|
C#|-----------x--------------x-------------x-------------x----------|
G#|-----------7--------------8-------------7-------------5----------|
C#|-0-0-0-0-------0-0-0-0--------0-0-0-0-------0-0-0-0--------------|
    . . . .       . . . .        . . . .       . . . .


D#|------------------------------------------------------------------|
A#|------------------------------------------------------------------|
F#|--------------9---------------10---------------9---------------12-|
C#|--------------x----------------x---------------x----------------x-|
G#|--------------7----------------8---------------7---------------10-|
C#|-0-0-0-0-0-0-----0-0-0-0-0-0------0-0-0-0-0-0-----0-0-0-0-0-0-----|
    . . . . . .     . . . . . .      . . . . . .     . . . . . .


D#|-----------------------------------------------------------------|
A#|-----------------------------------------------------------------|
F#|--------------9---------------10---------------9---------------7-|
C#|--------------x----------------x---------------x---------------x-|
G#|--------------7----------------8---------------7---------------5-|
C#|-0-0-0-0-0-0-----0-0-0-0-0-0------0-0-0-0-0-0-----0-0-0-0-0-0----|
    . . . . . .     . . . . . .      . . . . . .     . . . . . .
Tap to rate this tab
# A B C D E F G H I J K L M N O P Q R S T U V W X Y Z