Song name
# A B C D E F G H I J K L M N O P Q R S T U V W X Y Z

Dumbfoundead - Different Galaxies tab

this is the main guitar riff for the song. it pretty much repeats itself throughout the 
song. i hope you find it useful :)

e--------x------------x------------x------------x-----|
b--5--5--x--5---3--3--x--3---1--1--x--1---3--3--x--3--|
g--4--4--x--4---2--2--x--2---0--0--x--0---4--4--x--4--|
d--5--5--x--5---4--4--x--4---2--2--x--2---4--4--x--4--|
a--3--3--x--3---2--2--x--2---0--0--x--0---------x-----|
e--------x------------x------------x------3--3--x--3--|
   Cmaj7        Bm7          Am7          Gmaj7
e--------x------------------------x-----------------------|
b--5--5--x--5---3--3--7--7--7--7--x--6----5--5------5-----|
g--4--4--x--4---2--2--8--8--7--7--x--6----5--5-----4------|
d--5--5--x--5---4--4--7--7--5--5--x--4----3--3----3-------|
a--3--3--x--3---2--2--------7--7--x--6----5--5------------|
e--------x------------7--7--------x-------------3---------|
   Cmaj7        Bm7   B7    Em7      Ebm7 Dm7   G7add6

loooooop it

you can listen to the song to help you with rhythms :)

http://dumbfoundead.com/
Tap to rate this tab
# A B C D E F G H I J K L M N O P Q R S T U V W X Y Z