Song name
# A B C D E F G H I J K L M N O P Q R S T U V W X Y Z

Duncan Sheik - Wishful Thinking tab

100% correct....
CAPO ON 2



*INTRO*
e--12---9--9---10---7--7---9---5--5---7---9-10---------|
B----0---0-------0---0------0---0------0---------------|
G-----9---9-------7---7------6---6---------------------|
D------------------------------------------------------|
A------------------------------------------------------|
E------------------------------------------------------|

e--12---9--9---10---7--7---9---10--9--7----|
B----0---0-------0---0------0---------0----|
G-----9---9-------7---7--------------------|
D------------------------------------------|
A------------------------------------------|
E------------------------------------------|


*VERSE*
e--0----3----3----3----3----|
B--3----3----3----3----3----|
G--0----0----0----0----0----|   STRUM CHORDS
D--4----2----x----2----0----|
A--5----0----3----2----x----|
E-----------------0----3----|


*CHORUS*
e--3----0----3----3------|
B--3----3----3----3------|
G--0----4----0----0------|  STRUM CHORDS
D--2----4----2----0------|
A--2----2----0----x------|
E--0--------------3------|

Tap to rate this tab
# A B C D E F G H I J K L M N O P Q R S T U V W X Y Z