Guitaretab - guitar tabs
Song name
# A B C D E F G H I J K L M N O P Q R S T U V W X Y Z

Duncan Sheik - Touch Me tab

Hey , I just learned how to play "touch me" from the best musical in the world Spring
! Im not sure if its 100% right but it sounds good . When I play the verses I usually
the first finger of the note. I dont really know the names of the chords but the chorus 
know somewhat but its off kinda. Anyways give feedback!


Verses
[ Tab from: http://www.guitaretab.com/d/duncan-sheik/156919.html ]
|----3--5-----------------|
|-2--5--7--2--------------|
|-4--5--7--2--------------|
|-4--4--6--1--------------|
|-3-----------------------|
|-------------------------|

Chorus

  D  E  G  G
|-------3--3--------------|
|----2--2--2--------------|
|----0--------------------|
|-3--1--------------------|
|-2-----3--0--------------|
|-3-----3--3--------------|
Related for Touch Me tab
Advertisement will be closed in 10 seconds