Song name
# A B C D E F G H I J K L M N O P Q R S T U V W X Y Z

Dusty Rhodes And The River Band - Fire In The Sky tab

Artist: Dusty Rhodes and the River Band -> http://www.myspace.com/dustyrhodes
Song: Fire in the Sky
Album : Cut Open Like A Fish

Intro:
Acoustic:
E||-2-2-xx-2-2-xx-3-3-3-0-0h2-2-2-|
B||-3-3-xx-3-3-xx-3-3-3-3-3---3-3-|
G||-2-2-xx-4-4-xx-2-2-2-2-2---2-2-|
D||--------4-4-xx-----------------|
A||--------2-2-xx-----------------|
E||--------x-x--------------------|

Guitar 1:
E||---14----14----14----15----14----12--12--12----------|
B||-----15----15----15----15----15----------------------|
G||-14----14----14----14----14----14--12--12--12--------|
D||-----------------------------------------------------|
A||-----------------------------------------------------|
E||-----------------------------------------------------|

Guitar 2:
D||-/12-14b16b14-12-17p16-17p16-14s12-14s16-/17-12-17p16-14s12-

D||-14s16-14s12/-
 

Pre-chorus:
E||--5-5-xx-2-2-xx-3--|
B||--7-7-xx-3-3-xx-3--|
G||--7-7-xx-4-4-xx-4--|x2
D||--7-7-xx-4-4-xx-5--|
A||--5-5-xx-2-2-xx-5--|
E||--x-x----x-x----3--|

Chorus:
E||--2----3----5----5--|
B||--3----3----7----5--|
G||--4----4----7----6--|x2
D||--4----5----7----7--|
A||--2----5----5----7--|
E||--x----3----x----5--|

Then:
Pre-chorus x1

Intro without Guitar 2

Pre-chorus x2

Chorus x2


End: D (x57775)
Tap to rate this tab
# A B C D E F G H I J K L M N O P Q R S T U V W X Y Z