Song name
# A B C D E F G H I J K L M N O P Q R S T U V W X Y Z

Dwight Twilley Band - Im On Fire tab

-------------------------------------------------------------------------------
                        I'M ON FIRE - Dwight Twilley Band
-------------------------------------------------------------------------------

Tuning: Standard E-A-D-G-B-E

There are a couple of riffs missing near the end that I may add later, 
but this tab provides a good playing version.


e|---------------------------------------------------------------------------|
B|--/8--/8--7--5-------------------------------------------------------------|
G|--/9--/9--9--7--7--5-------------------------------------------------------|
D|----------------9--7--7------------------------------------2---------------|
A|----------------------9------7--7--5-----------------2--4-----4--2---------|
E|--------------------------------------7--5--2--0--0------------------------|


           E
e|---------------------------------------------------------------------------|
B|---------------------------------------------------------------------------|
G|---------------------------------------------------------------------------|
D|--------------------------------------------2--2---------------------------|
A|---------------------2--4--------------2--4-------4--3--2------------------|
E|---------0--0--3--4---------0--0--3--4---------------------4---------------|
  Got your lady on the line


e|---------------------------------------------------------------------------|
B|---------------------------------------------------------------------------|
B|---------------------------------------------------------------------------|
G|---------------------------------------------------------------------------|
D|--------------------------------------------2--2---------------------------|
A|---------------------2--4--------------2--4-------4--3--2------------------|
E|---------0--0--3--4---------0--0--3--4---------------------4---------------|
  Got your name on the cover

              
e|---------------------------------------------------------------------------|
B|---------------------------------------------------------------------------|
G|---------------------------------------------------------------------------|
D|----------------------------2---4-----------------2--4---------------------|
A|------------0---0---3---4-------------0--0--3--4---------------------------|
E|---------------------------------------------------------------------------|
  Though your friends are ninety-nine

        E
e|---------------------------------------------------------------------------|
B|---------------------------------------------------------------------------|
G|---------------------------------------------------------------------------|
D|---------------------------------------------------------------------------|
A|--------------------------2---4--------------------------------------------|
E|----------0---0---3---4----------------------------------------------------|
  Honey you ain't got not lover

      A                                   E
e|---------------------------------------------------------------------------|
B|---------------------------------------------------------------------------|
G|---------------------------------------------------------------------------|
D|-----------------------------------------------------------2--2------------|
A|-----------------------------------------------------2--4--------4--3--2---|
E|-----------------------------------------0--0--3--4-----------------------4|
  And you ain't you ain't you ain't got no lover

      A                                   E
e|-----------------------------------------/10--/10---9--7--5--3-------------|
B|-----------------------------------------/12--/12--10--8--7--5-------------|
G|---------------------------------------------------------------------------|
D|---------------------------------------------------------------------------|
A|---------------------------------------------------------------------------|
E|---------------------------------------------------------------------------|
  And you ain't you ain't you ain't got no other

      Em                            A
e|---------------------------------------------------------------------------|
B|---------------------------------------------------------------------------|
G|-------------------------------------6h7-9-9p7-6---------6h7-9-9p7-6-------|
D|----------------------------------/7-------------9p7-6-/7-------------9p7-6|
A|---------------------------------------------------------------------------|
E|---------------------------------------------------------------------------|
  I remember the feeling I could be free

       Em                           A
e|---------------------------------------------------------------------------|
B|---------------------------------------------------------------------------|
G|---------------------------------------------------------------------------|
D|---------------------------------------------------------------------------|
A|---------------------------------------------------------------------------|
E|---------------------------------------------------------------------------|
  Now I know it could never never be me

               E
e|---------------------------------------------------------------------------|
B|---------------------------------------------------------------------------|
G|---------------------------------------------------------------------------|
D|-------------------------------2--2----------------------------------------|
A|-------------------------2--4--------4--3--2-----------------2--4----------|
E|-------------0--0--3--4-----------------------4--0--0--3--4----------------|
  Cause I'm on fire                 Got myself on fire

                      A  A Asus4  A   E
e|-----------------------------------------7b-7-7b-7-10-7--------------------|
B|--------------------------------------------------------10-7---------------|
G|-------------------------------------------------------------9-7-----------|
D|-2--2------------------------------------------------------------9---------|
A|-------4--3--2-------------------------------------------------------------|
E|----------------4----------------------------------------------------------|
                                        Ow

  The second verse and choruses follow the same patterns as above. The lyrics are:

Got your joker on the table
You've been told from time to time
I'll be willing, I'll be able
You could read between the lines

But you ain't, you ain't
You ain't got no lover, lover, lover
And you ain't, you ain't

You ain't got no other

I remember the feeling that I could be free
Now I know it could never, never be me
Cause I'm on fire
Mama I'm on fire

But you ain't, you ain't
You ain't got no lover, lover, lover, lover
And you ain't, you ain't
You ain't got no other, other, other, other
And you ain't, you ain't
You ain't got no lover, lover, lover

   E
e|------/10--/10---9--7--5--3------------------------------------------------|
B|------/12--/12--10--8--7--5------------------------------------------------|
G|---------------------------------------------------------------------------|
D|---------------------------------------------------------------------------|
A|---------------------------------------------------------------------------|
E|---------------------------------------------------------------------------|

   A*    E           A*        E
e|---------------------------------------------------------------------------|
B|---------------------------------------------------------------------------|
G|---------------------------------------------------------------------------|
D|---------------------------------------------------------------------------|
A|---------------------------------------------------------------------------|
E|---------------------------------------------------------------------------|
 I'm  on  fire        I'm  on  fire

   A*    E           A*        E
e|---------------------------------------------------------------------------|
B|---------------------------------------------------------------------------|
G|---------------------------------------------------------------------------|
D|---------------------------------------------------------------------------|
A|---------------------------------------------------------------------------|
E|---------------------------------------------------------------------------|
 I'm  on  fire        I'm  on  fire
 You ain't got no ...

(repeat and fade)


Chords:

E -     022100
A -     x02220
Em -    022000
Asus4 - x02230
A* -    577677

************************************

| /   slide up
| \   slide down
| h   hammer-on
| p   pull-off
| ~   vibrato
| +   harmonic
| x   Mute note
| b   Bend
| pb  Pre-bend
| br  Bend release
| pbr Pre-bend release
| brb Bend release bend

Tap to rate this tab
 
# A B C D E F G H I J K L M N O P Q R S T U V W X Y Z