Song name
# A B C D E F G H I J K L M N O P Q R S T U V W X Y Z

Dwight Yoakam - Streets Of Bakersfield tab

E--14-16-17-17-17-17-16-16-16-16-16-14-14----16-16-16-14-----------------|
B----------------------------------------15-------------15-14-12---------|
G---------------------------------------------------------------14-13-14-|
D------------------------------------------------------------------------|
A------------------------------------------------------------------------|
E------------------------------------------------------------------------|


E--12-----10-9--9-7----------|
B----12\10---------10-7-10---|
G----------------------9-----|
D----------------------------|
A----------------------------|
E----------------------------|

Any Questions Ask me at F-skead@hotmail.com
Tap to rate this tab
# A B C D E F G H I J K L M N O P Q R S T U V W X Y Z