Guitaretab - guitar tabs
Song name
# A B C D E F G H I J K L M N O P Q R S T U V W X Y Z

Dwight Yoakam - Back Of Your Hand tab

E--------------1------------| |-----------------|
B---------------------------| |-------3---------|
G-------2--------2----------| |----3---3--------|
D---3-3---3-3------3--------| |--3--3-----------|
A-----------------------0h1-| |-1---------3/5-3-|
E--1------------------3-----| |-----------------|

[ Tab from: ]
E--------------1-----------| |------------------|
B--------------------------| |-------5----------|
G-------2-------2----------| |----5---5---------|
D---3-3---3-3-----3--------| |--5--5------------|
A---------------------0h1--| |-3-----------0h3--|
E--1----------------3------| |-----------3------|

I sat down for hours trying to learn this and I finally did... it's not the best but 
pretty good... you can use it as the verses also, just play it over and over again.

-Tyler H.
Related for Back Of Your Hand tab