Guitaretab - guitar tabs
Song name
# A B C D E F G H I J K L M N O P Q R S T U V W X Y Z

Dylan Bob - I Want You tab

* Bob Dylan : I want you (Dylan)
  ----------------------                               b   4

* Capo 5th fret

* Fig. 1

     F (C)                        Am/E (Em/B)                 Dm (Am)  
E |-----0-----0--|--1p0-----0--|-----0-----0--|--1p0-----0--|-----0-----0--|
B |--------------|-------3-----|--------------|-------3-----|-(1)----------|
G |--------0-----|-------------|--------0-----|-------------|--------2-----|
D |--------------|-------------|--------------|-------------|-(2)----------|
A |--3-----------|-------------|--2-----------|-------------|--0-----------|
E |--------------|-------------|--------------|-------------|--------------|

                  C (G)                   F (C)
E |--1p0-------|-----------|-------3--||--------|--------|--------|--------||
B |-------3p1--|--3-1p0----|----------||--1--1--|--1--1--|--1--1--|--1--1--||
G |------------|---------2p|0-(0)-----||--------|--------|--------|--------||
D |------------|-----------|----------||--2--2--|--3--2--|--2--2--|--3--2--||
A |------------|-----------|----------||--------|--------|--------|--------||
E |------------|-(3)-------|----------||--------|--------|--------|--------||

* Fig. 2

     Bb (F)                           C (G)
E |------------------|-------------|-----------------|--------------|
B |------1-----1-----|--1p0-----1--|-----3-----3-----|--3--1--0--3--|
G |---------2-----2--|-------2-----|--------0-----0--|--------------|
D |--(3)-------------|-------------|-----------------|--------------|
A |------------------|-------------|-----------------|--------------|
E |------------------|-------------|-(3)-------------|--------------|

     Dm (Am)                          C (G)
E |------0-----0-----|--1--0-------|------------|-----||
B |------------------|--------3p1--|--3--1p0----|-----||
G |---------2-----0--|-------------|----------2p|0----||
D |------------------|-------------|------------|-----||
A |--(0)-------------|-------------|------------|-----||
E |------------------|-------------|-(3)--------|-----||

( Intro = Fig. 1 )

* Verse 1 : 

( Fig. 1 )

     F (C)      
The guilty undertaker sighs
     Am/E (Em/B)
The lonesome organ grinder cries
     Dm (Am)                     C (G)
The silver saxophones say I should refuse you

( Fig. 2 )

     Bb (F)
The cracked bells and washed out horns
 C (G)
Blowin to my face with scorn
       Dm (Am)
But it's not the way
                 C (G)
I wasn't born to lose you

* Chorus :

(Fig. 1 )

  F (C)
I want you
  Am/E (Em/B)
I want you
  Dm (Am)     C (G)
I want you so bad
        F (C)
Honey I want you

* Verse 2 :

The drunken politician leaps
Up on the street where mother's weep
And the saviours who are fast asleep 
They wait for you
And I wait for them to interrupt me drinking from my broken cup
And ask me to open up the gate for you

* Chorus

    Am (Em)
Now all my fathers they've gone down
 Dm (Am)
True love they've been without it
    Am (Em)
But all their daughters put me down
      Bb (F)             C (G)
'Cause I don't think about it  

E |--------------------|--------------0-----|--1--0-----------||
B |--0--0-----0--------|-----3--------------|--------3--0--1--||
G |--0--0--0-----0-----|--------0--0-----0--|-----------------||
D |--0--0-----------0--|--------------------|-----------------||
A |--------------------|--------------------|-----------------||
E |--------------------|--3-----------------|-----------------||

* Verse 3 :

Well I return to the Queen of Spades
And talk with my chamber maid
She knows that I'm not afraid to look after her
She is good to me and there's nothing she doesn't see
She knows where I'd like to be but it doesn't matter

* Chorus

* Verse 4 :

Now you're dancing child with his Chinese suit
He spoke to me, I took his flute
No I wasn't very cute to him was I?
But I did it because you lied and because he took you for a ride
And because time was on his side, and because I...

* Chorus


                                           Keep rockin !

                                           Max ( )


[ Tab from: ]
Related for I Want You tab