Guitaretab - guitar tabs
Song name
# A B C D E F G H I J K L M N O P Q R S T U V W X Y Z

Dylan Bob - Masters Of War tab

----------------------------------------------------------------------------
			     Masters of War - Amon Amarth
----------------------------------------------------------------------------
Tabbed by:Derz
Email:phillip55@web.de

Tuning:EADGBe

 .  - palm mute          /  - slide up to
 \  - slide down to      ~  - vibrato
 h  - hammer on          b  - bend
 p  - pull off            Suffixes for bend
                          ph - pinch harmonic
                           
                           r - release      t - tap bend
X  - percussion mute       ~ - vibrato bend
@  - slight palm mute     () - Hold note until next note

 " - Tremolo until next note


Solo:

e|----------------------------------------------------------------|
B|----------------------------10----------------------------------|
G|-11~-11h12p11--9-11-12-12-11---12-11-(11)~--11h12p11-9-14-12----|
D|----------------------------------------------------------------|
A|----------------------------------------------------------------|
E|----------------------------------------------------------------|

[ Tab from: http://www.guitaretab.com/d/dylan-bob/5771.html ]
e|----------------------------------------------------------------|
B|-12~-13-13-15-15-13-13-12-12-10-10-12~--------------------------|
G|----------------------------------------------------------------|
D|----------------------------------------------------------------|
A|----------------------------------------------------------------|
E|----------------------------------------------------------------|

e|----------------------------------------------------------------|
B|---7------------------------7-----------------------------------|
G|-4---4-5-7-9-7-5-4-4-4h5--4---4-5-7-9-7-9-11--12-14-16-16-16-16b|
D|----------------------------------------------------------------|
A|----------------------------------------------------------------|
E|----------------------------------------------------------------|

e|----------------------------------------------------------------|
B|----------------------------------------------------------------|
G|-12-14-14-12-12-11-11-9-9-11-11h12p11-11h12p11-11h12p11-etc.----|
D|----------------------------------------------------------------|
A|----------------------------------------------------------------|
E|----------------------------------------------------------------|


Tipp:
e|--------------------------------------------------------------------|
B|--------------------------------------------------------------------|
G|-You can-play this part11h12p11-11h12p11better like this:-11t12p11--|
D|--------------------------------------------------------------------|
A|--------------------------------------------------------------------|
E|--------------------------------------------------------------------|

with tapping you are faster of course.

END!
Related for Masters Of War tab
Masters Of War chords by Dylan Bob