Song name
# A B C D E F G H I J K L M N O P Q R S T U V W X Y Z

Dynamite Boy - Catching On tab

-----------------------------------------------------------------------------
			     Catching On - Dynamite Boy
-----------------------------------------------------------------------------
Tabbed by: noodles101
Email:

Tuning: STANDARD

p.m. - palm mute

e|-------------------------------------------------------------|
B|------3-4-3---------3-4-3-----------3-4-3--------------------|
G|-3-3-------3---5-5--------3---------------3------------------|
D|-3-3-----------5-5-------------6-6---------------------------|
A|-1-1-----------3-3-------------6-6----------6-6-6-6-6-6-6-6--|
E|-------------------------------4-4----------4-4-4-4-4-4-4-4--| Repeat twice
                                              p.m.............
Tap to rate this tab
 
# A B C D E F G H I J K L M N O P Q R S T U V W X Y Z