Song name
# A B C D E F G H I J K L M N O P Q R S T U V W X Y Z

Dz Deathrays - No Sleep tab

-----------------------------------------------------------------------------
                                    NO SLEEP - DZ Deathrays
-----------------------------------------------------------------------------

Tabbed by Dan

Simple, and priddy fun to play

Drum intro, then straight to chorus

Chorus

e|--------------------------------------------------------------------------|
B|--------------------------------------------------------------------------|
G|--------------------------------------------------------------------------|
D|--------------------------------------------------------------------------|
A|----------------------------------10-10-10-10-----10-10-13-13-12-12-------|
E|--10-10-10-10-10-10-10-10-8-8-8-8-----------------------------------13-13-|

Repeated a few times.

Verse

e|---------------------------------------------------------------------------------------------|
B|---------------------------------------------------------------------------------------------|
G|----------------------------------------------------------------10-----------------10--------|
D|-----------10-----------10------------10-----------10-----10-12----12-10-----10-12----12-10--|
A|-----10-12--------10-12---------10-12--------10-12-------------------------------------------|
E|-10------------9------------13------------6------------5------------------5------------------|

The next verse is just the bass notes, like this:

e|-----------------------------------------------------------------|
B|-----------------------------------------------------------------|
G|-----------------------------------------------------------------|
D|-----------------------------------------------------------------|
A|-----------------------------------------------------------------|
E|-10------------9------------13------------6------------5---------|

Ending

e|-----------------------------------------------------------------------------|
B|-----------------------------------------------------------------------------|
G|----12-12-12---14-14-14----17-17-17---19-19-19---21-21-21---22-22-21---------|
D|-----------------------------------------------------------------------------|
A|-----------------------------------------------------------------------------|
E|-10----------9----------13----------6----------5----------5----------10------|

repeat each part a few times during each verse/chorus.
x
Tap to rate this tab
# A B C D E F G H I J K L M N O P Q R S T U V W X Y Z