Song name
# A B C D E F G H I J K L M N O P Q R S T U V W X Y Z

Dzem - Wokol Sami Lunatycy tab

Wokol sami lunatycy

Dzem /R. Rysiel/

Albums:
The Singles;
Single Tonpress;
Lunatycy, czyli tzw. przeboje calkiem live;

Gramy przez caly kawalek:
-||----------------------------------||
-||----------------------------------||
-||--------------------5/7-7-5-------||
-||----------------------------7-5---||
-||---5--5--0----------------------7-||
-||----------------------------------||

-||----------------------------------||
-||----------------------------------||
-||----------------------------------||
-||--------------------5/7-5---------||
-||--------------------------7-------||
-||--5--5--0--5----------------------||


-||----------------------------------||
-||----------------------------------||
-||----------------------------------||
-||------------------5--5------------||
-||----------5--5--------------------||
-||--3--3----------------------------||


-||----------------------------------||
-||----------------------------------||
-||----------------------------------||
-||--------5---------------7---------||
-||--3-/-7---7-------5-/-9---9-------||
-||----------------------------------||

Mozna dolaczyc druga gitare, grajaca na nastepujacych chwytach:

zwr:
d , a
d , g

ref:
F , C , B , C

by Maclaw.pl
Tap to rate this tab
 
# A B C D E F G H I J K L M N O P Q R S T U V W X Y Z