Song name
# A B C D E F G H I J K L M N O P Q R S T U V W X Y Z

Eagles - Already Gone tab

e----------------|-------------------12t-|
B----------------|-----------------8-----|
G----------------|------------5-7/9------|
D----------------|-------5-5/7-----------|
A--------5-b7-5t|-3-3-5/7---------------|
E-3-3-5/7--------|-----------------------|

e|---------------------|-------------------------------|
B|---12\10--10-10------|---------13-b15-b15-b15-13-13t-|
G|--------12-----------|-12-12/15----------------------|
D|---------------------|-------------------------------|
A|---------------------|-------------------------------|
E----------------------|-------------------------------|

e|----------------------------|--------------|------------12-|
B|-----------12---------------|----------13--|------12-15----|
G|10-10/12-12-12t\----10-----|-----12-14----|-12/14---------|
D|----------------10/12--12-12|12/14---------|---------------|
A|----------------------------|--------------|---------------|
E|----------------------------|--------------|---------------|

e---------15-15|-----15-17-15------|-------------|-------------|
B-------12-----|15/17--------17-15-|---------13--|b15----------|
G--12/14-------|-------------------|-------1414-|---12-14-b15-|
D--------------|-------------------|-12/14-------|-------------|
A--------------|-------------------|-------------|-------------|
E--------------|-------------------|-------------|-------------|


e------------|---------------|
B--11-12-----|---------------|
G-------12-12|------10-------|
D------------|-10/12---12-12-|
A------------|---------------|
E------------|---------------|

e------------------------------------|
B------------------------------------|
G------------------------------------|
D-10-b12-10-10-b12-10-10-b12-10-10t\-|
A------------------------------------|
E------------------------------------|
Tap to rate this tab
# A B C D E F G H I J K L M N O P Q R S T U V W X Y Z