Song name
# A B C D E F G H I J K L M N O P Q R S T U V W X Y Z

Eagles - Tequila Sunrise chords

Highlighted       Show chord diagrams
Tequila Sunrise
The Eagles

Chords:
    
   E-A-D-G-B-e
G  3-2-0-0-0-3
G6 3-x-2-0-0-3
Am x-0-2-2-1-0
D7 x-x-0-2-1-2
D  x-x-0-2-3-2
Bm x-2-4-4-3-2 (Bar Chord)
E  0-2-2-1-0-0
B7 0-2-1-2-0-2
Em 0-2-2-0-0-0
A  x-0-2-2-2-0
C  x-3-2-0-1-0

strumming:
down-down-up---up-down-up

G-G6 means following:
strumming:    down down up down  up  down  up    down up
           e-|--3----3---3---3---3----3----3-----3----3--|
           B-|--0----0---0---0---0----0----0-----0----0--|
           G-|--0----0---0---0---0----0----0-----0----0--|
           D-|--0----0---0---0---2----2----2-----0----0--|
           A-|--2----2---2---2---x----x----x-----2----2--|
           E-|--3----3---3---3---3----3----3-----3----3--|

Intro:
G-G6 G-G6 G-G6 Am D7 G-G6 G-G6

Verse 1 and 2:

G-G6                 
It's another Tequila Sunrise 
D                         Am
starin' slowly 'cross the sky
D7       G-G6
said goodbye
G-G6
He was just a hired hand
D                                Am       
Workin' on a dream he planned to try
D7          G-G6
The days go by

Chorus:
Em                   C
Every night when the sun goes down
Em           C                  Em
Just another lonely boy in town
Am                  D7
She's out runnin' round

Verse 3 and 4:
G-G6                   
She wasn't just another woman
D                               Am
And I couldn't keep from comin' on
D7             G-G6
It's been so long
G-G6               
Oh and it's a hollow feelin'
D                               Am
When it comes down to dealin' friends
D7         G-G6
It never ends

Solo:

     G-G6                                                 D
e-|--7--7-7---8----10--10-10--10--10---12---10---8----7---5--5-5--5--5-----|
B-|--8--8-8---10---12--12-12--12--12---13---12---10---8---7--7-7--7--7-----|
G-|-------------------------------------------------------7--7-7--7--7-----|
D-|------------------------------------------------------------------------|
A-|------------------------------------------------------------------------|
E-|------------------------------------------------------------------------|

   D                   Am             D7             G-G6
e-|-7-7h8--7--6--5--4--3---------------------------------------------10h12-|
B-|-9-9h10-9--8--7--6--5-------------------------------3h5p3---------10h12-|
G-|-----------------------------0-2-4-2~-------0-2-4-0-------5-4-2-0-------|
D-|-----------------------0-2-4----------0-2-4-----------------------------|
A-|------------------------------------------------------------------------|
E-|------------------------------------------------------------------------|

Bridge:
Am             D
Take another shot of courage
Bm               E                 Am   B7 
Wonder why the right words never come
B7             Em          A 
You just get numb

Verse 5:
G-G6
It's another tequila sunrise
D                               Am
This old world still looks the same
D7        G-G6
Another frame

G-G6 G-G6 G-G6  G(let ring)
   (uuuuh)

Outro:

e-|--12--10--9------10--9-------------------------3---|
B-|-------------12---------12--10--9--------------3---|
G-|-----------------------------------11--9-------0---|
D-|------------------------------------------12---0---|
A-|-----------------------------------------------2---|
E-|-----------------------------------------------3---|
Tap to rate this tab
# A B C D E F G H I J K L M N O P Q R S T U V W X Y Z