Song name
# A B C D E F G H I J K L M N O P Q R S T U V W X Y Z

Eagles - Try And Love Again tab

Ok, I think this is mostly accurate but you might want to experiment with chords for the 
part.


(REPEAT TWICE)

  D                                                          G
e---2---2---2--0------------------------0----------------------3-3--3-------|
B---3---3---3--0--3--0--3s5-----3---3---0--3--0-------------------------0---|
G-----------------2--0--2s4-----2---2------2--0--2------2-0-----------------|
D------------------------------------------------2--4---2-0-----------------|
A---------------------------------------------------5-----------------------|
E---------------------------------------------------------------------------|

  G
e---3-3-3---3--3-3-3-------3-3-3--------------------------------------------|
B----------------------0----------------------------------------------------|
G---------------------------------------------------------------------------|
D---------------------------------------------------------------------------|
A---------------------------------------------------------------------------|
E---------------------------------------------------------------------------|


By the way excuse me if the tab is unorthodox in any way, its my first computerized tab.
Tap to rate this tab
 
# A B C D E F G H I J K L M N O P Q R S T U V W X Y Z