Eagles - Try And Love Again tab

There were no other good tabs for this and it's a pretty cool song blah, blah you know
it goes.  Anyways, I learned this by ear and it sounds damn good to me so hopefully you
the same. Enjoy

Lead in/intro:

e --14--14----------------12-------------12--15p12---------------|
B --15--15--17--17p15-----12-----15--15---------------12---------|
G --14--14------------14--12-----14--14------------14------------|
D ---------------------------------------------------------------|
A ---------------------------------------------------------------|
E ---------------------------------------------------------------|

Solo:

e -----------------------------------------------------------------|
B --12/15--17--17b--17rp15--17--------15--17--17b--17brp15--17-----|
G ------------------------------16~-----------------------------16-|
D -----------------------------------------------------------------|
A -----------------------------------------------------------------|
E -----------------------------------------------------------------|

e ------------------17~------------------------------------------|
B --15--17--17brp15-------17brp15--------------------------------|
G ---------------------------------16~---------------------------|
D ---------------------------------------------------------------|
A ---------------------------------------------------------------|
E ---------------------------------------------------------------|

e ------7----------------------------------------------------------|
B ----X----10--7-------------------------------7-------------------|
G -9b------------9brp7--7-----7-----9br7---7--9---9--7-------------|
D ------------------------7~----7~--------------------7~-----------|
A -----------------------------------------------------------------|
E -----------------------------------------------------------------|

e -----------------------7---------------------------------------|
B -------10--10~------10---10p7----------------------------------|
G --7h9-----------7/9-----------9-7------------------------------|
D ----------------------------------9-7------7~------------------|
A --------------------------------------7-9--5~------------------|
E ---------------------------------------------------------------|

r = basically a prebend
br = bend and return
sorry about the timing but you should be able to figure it out. Comment and let me know 
you think
Tap to rate this tab
 
# A B C D E F G H I J K L M N O P Q R S T U V W X Y Z