Song name
# A B C D E F G H I J K L M N O P Q R S T U V W X Y Z

Eagles - Witchy Woman tab

Intro:

  Gm      F  Dm    F  Dm        Fsus4 Gm
E------------------------------------------|
B-8---8---6--------6-----------------------|
G------------7--7-----7--7---5-------------|
D-------------------------------8-----5----|
A------------------------------------------|
E------------------------------------------|

  Gm      F  Dm    F Dm         Fsus4  Gsus4
E------------------------------------------|
B-8---8---6--------6-----------------------|
G------------7--7-----7--7---5---------5---|
D-------------------------------8----------|
A------------------------------------------|
E------------------------------------------|

  Gm
E-------------------|
B-------------------|
G------3-3---5p3-3--|   4x
D-3h5---------------|
A-------------------|
E-------------------|

Gm               D7
Ra-ven hair, and ruby lips.
D7                  Gm
Sparks fly from her fin-ger tips.
Gm              D7
Echoed voices,  in the night.
D7                              Gm
She's a rest-less spirit on an end-less flight.
Gm      D7                              Gm
Woo-ooo witchy wom-an, see how high she flies.
Gm      D7                                     Gm
Woo-ooo witchy wom-an, she got the moon in her eye--eyes.

  Bb  Gm  F  D     F D  C  D   C                 Gm
E-------------------------------------------------------|
B-6----------------6-----------------------------7>(8)--|
G-----7---5--7--7----7--5--7---5-------5----------------|
D---------------------------------8--------8--5---------|
A-------------------------------------------------------|
E-------------------------------------------------------|

Gm                       D7
She held me spell-bound, in the night (oooooh).
D7                    Gm
Dancin' sha-dows and  fire-light.
Gm                   D7
Crazy laughter in an-other room  (oooooh).
D7                                        Gm
And she drove her-self to mad-ness with a sil-ver spoon.
Gm                                      Gm
Woo-ooo witchy wom-an, see how high she flies.
Gm
Woo-ooo withcy wom-an, she got the moon in her eye---eyes.

  Gm      F Dm    F  Dm                  Gm
E--------------------------------------------|
B-8---8---6-------6--------6-----------------|
G-----------7--7-----7--7-------7-7-5--------|   2x
D--------------------------------------8-5---|
A--------------------------------------------|
E--------------------------------------------|

Solo
E--------------------5-5-5-5-------------------------------------|
B---------6-6-8--6-8---------8-6------------------------------6--|
G---5-7--------------------------7--7p5-----7-5----------5--7----|
D-8-------------------------------------8p5-----5-8-5--8---------|
A----------------------------------------------------------------|
E----------------------------------------------------------------|

E-8--6---------------------------------------------6--------|
B-------8-6--8--8-6------------------------------6---8vvvv--|
G-------------------7-5-----5----------------5-7------------|
D------------------------8-----8-5-------5-8----------------|
A----------------------------------8-5-8--------------------|
E-----------------------------------------------------------|

Gm                Dm7  (Ahh)       D7(Ahh) Gm
Ahh----------------Ahh-------------------Ahh-   E-13>(15)----|  Simultaneous
                                                B-11>(13)----|  bend.
Gm                Dm7  (Ahh)       D7(Ahh) Gm
Ahh----------------Ahh-------------------Ahh-

  Gm      F Dm    F Dm        Fsus4 Gm
E--------------------------------------|
B-8---8---6-------6--------------------|
G-----------7--7----7--7---5-----------|
D-----------------------------8-----5--|
A--------------------------------------|
E--------------------------------------|
  Gm      F Dm    F Dm        Fsus4  Gsus4
E-----------------------------------------|
B-8---8---6-------6-----------------------|
G-----------7--7----7--7---5---------5----|
D-----------------------------8-----------|
A-----------------------------------------|
E-----------------------------------------|

Gm
I know you want to love her, but let me tell you bro-ther.
Gm         Cm               Bb       Gm
She's been sleep-in' in the dev-il's bed.  Bass  A---------------|
                                                 E-6-6-3-3-1-1-3-|
Gm
And there's some rumors goin' round, someone's under-ground.
Gm      Bb              C                Gm
She can rock you in the night until your skin turns red.
Gm       D7                              Gm
Woo-ooo, witchy wom-an, see how high she flies.
Gm       D7                                       Gm
Woo-ooo, witchy wom-an, she's got the moon in her eye---eyes.

  F D C D  C Gm  C Gm F  Gm
E--------------------------------|
B-6----------------------7>(8)---|
G---7-5-7--5-----5---------------|
D------------8-----8--5----------|
A--------------------------------|
E--------------------------------|

  F D C D  C Gm  C  Gm  F      Gm
E-------------------------------------|
B-6-----------------------------------|
G---7-5-7--5-----5--------------------|
D------------8------8----------5vvvvv-|
A-----------------------8-------------|
E-------------------------------------|

I threw that one bass line in because it really sounded great
but the bass is right there throughout the song.

h    = hammer on
p    = pull off
>( ) = bend to note ( )
vvvv = vibrato

Tabbed from Eagles: Their Greatest Hits. 1971-1975
Tap to rate this tab
 
# A B C D E F G H I J K L M N O P Q R S T U V W X Y Z