Song name
# A B C D E F G H I J K L M N O P Q R S T U V W X Y Z

Earlyrise - Old Friend tab

-------------------------------------------------------------------------------
                             Old Friend - EarlyRise
-------------------------------------------------------------------------------

EarlyRise - http://www.facebook.com/earlyrise

Tabbed by: Reed Lilley (Reedly)
Email: reedly@gmail.com

Tuning: 1/2 Step UP - (Or capo on 1st fret)


Intro and first part of verse:

e|---------0-------|---------0--------|
B|-------4----0----|-------4----4-----|
G|-----4---------4-|-----4---------4--| Repeat
D|-----------------|------------------|
A|---4------4--4---|---0------0--0----|
E|-----------------|------------------|


Second part of verse:

e|------0-----0-----0-----0--|-----0-----0-----0-----0---|
B|-----4-4---4-4---4-4---4-4-|----4-4---4-4---4-4---4-0--|
G|----4-----4-----4-----4----|---4-----4-----4-----4-----|
D|---------------------------|---------------------------|
A|---4-----4-----4-----4-----|--0-----0-----0-----0------|
E|---------------------------|---------------------------|


e|------0-----0-----0-----0--|--------0------|
B|-----4-4---4-4---4-4---4-4-|------4---4----|
G|----4-----4-----4-----4----|----4--------4-|
D|---------------------------|---------------|
A|---4-----4-----4-----4-----|--0------0--0--|
E|---------------------------|---------------|


Chorus:

   Aadd9   C#m7 Bsus4                          
e|--0-------0----0--|--0-----0--0--|--0-----0--0--|--0---0---0---0-|
B|--0-------0----0--|--0-----0--0--|--0-----0--0--|--0---0---0---0-|
G|--2-------6----4--|--2-----6--4--|--2-----6--4--|--2---2---6---4-|
D|--2-------6----4--|--2-----6--4--|--2-----6--6--|--2---4---6---4-|
A|--0-------4----2--|--0-----4--2--|--0-----4--6--|--0---4---4---2-|
E|------------------|--------------|-----------4--|------2---------|


2nd Intro: 

1. C#m   (x46640) or (x46800) or (x46600) ((but NOT x46654))
2. Aadd9 (x02200)
Repeat.


2nd Verse:

C#m - Aadd9 - C#m - Aadd9
C#m - Aadd9 - C#m - Aadd9


Chorus 2: Same as first - I have no idea what that 2nd guitar is doing. Good luck!


Bridge Intro:
Same chord as intro (C# something) - more picking.

Bridge:
1. C#m7   (x4x440)
2. Bsus4 (x2x440)
3. Aadd9 (x0x440)
4. Bsus4
5. C#m7
6. Bsus4
7. Aadd9
8. Bsus4
Repeat - then stop at the Aadd9 right before the next part.


Lyrics: Goodbye me friend...

(Chord versions like the Chorus now.)

C#m7 - Bsus4 - Aadd9 - Bsus4
C#m7 - Bsus4 - F#??(244200) - xxxxxx
C#m7 - Bsus4 - Aadd9 - Bsus4
C#m7 - Bsus4 - Aadd9 - Bsus4

C#m7
Tap to rate this tab
# A B C D E F G H I J K L M N O P Q R S T U V W X Y Z