Song name
# A B C D E F G H I J K L M N O P Q R S T U V W X Y Z

Earth Crisis - End Begins tab

                         END BEGINS - Earth Crisis


By Terry Sims (Masterofdarknes)
Tezza_01@hotmail.com

INTRO
e|----------------|---------------|
D|----------------|---------------|
G|----------------|---------------|
D|----------------|-------3-------|
A|-0--5-5-3-5-3-0-|-0-5-5---3-5-0-|
D|-0------------0-|-0-----------0-|

VERSE
e|----------------------------------------------|
D|----------------------------------------------|
G|----------------------------------------------|
D|----------------------------------------------|
A|-0--0-0--0--0--1--0--1--0--5\4-1----5-5-3-5-3-|
D|-0--0-0--0--0--1--0--1--0--5\4-1--7-----------|

e|----------------------------------------------|
D|----------------------------------------------|
G|----------------------------------------------|
D|----------------------------------------3-----|
A|-0--0-0--0--0--1--0--1--0--5\4-1----5-5---3-5-|
D|-0--0-0--0--0--1--0--1--0--5\4-1--7-----------|

CHORUS
e|-------------------|-------------------|---------------|
D|-------------------|-------------------|---------------|		
G|-------------------|-------------------|---------------|
D|-------------------|-------------------|---------------|
A|-5--5-5-3-3--1-0-0-|-5--5-5-3-3--6-0-0-|-5-3-2-3-5-6-5-|
D|-5--5-5-3-3--1-0-0-|-5--5-5-3-3--6-0-0-|---------------|

INTERLUDE
e|---------------------------|
D|---------------------------|
G|---------------------------|
D|---------------------------|
A|--0-7-0-8-7-0-7-0-8-0-7-0--|
E|---------------------------|

e|------------------------------------------|
D|------------------------------------------|
G|------------------------------------------|
D|------------------------------------------|
A|--0-0-0-0--0-0-0-0-0-0-0-0-0-0-0-0-0-0-0--|
D|--0-0-0-0--0-0-0-0-0-0-0-0-0-0-0-0-0-0-0--|

e|-------------------------------------|
D|-------------------------------------|
G|-------------------------------------|
D|-----9/10-----9/10-----9/10----------|
A|--0--7/8---0--7/8---0--7/8----2-1-0--|
D|--0--------0--------0---------2-1-0--|

BREAKDOWN

e|-----------------------------------|
D|-----------------------------------|
G|-----------------------------------|
D|-----------------------------------|
A|--0-0-0-0--0--0--1--0--1--0--5\4-1-|
D|--0-0-0-0--0--0--1--0--1--0--5\4-1-|
Tap to rate this tab
 
# A B C D E F G H I J K L M N O P Q R S T U V W X Y Z