Guitaretab - guitar tabs
Song name
# A B C D E F G H I J K L M N O P Q R S T U V W X Y Z

Earth Wind And Fire - September tab

v bend up
/ slide up

intro:

e------------------------I
B------------------------I
G--6-6-6-----------------I    repeat through verse
D-------9-7-/9-9-9--6-7--I
A------------------------I
E------------------------I

chorus:
[ Tab from: http://www.guitaretab.com/e/earth-wind-and-fire/140731.html ]
e----10--------10-----------I            
B-12v--12v--12v--12v---8-12-I
G---------------------------I  x3    
D---------------------------I
A---------------------------I
E---------------------------I

e--------I
B-10-----I
G---11-9-I
D--------I
A--------I
E--------I


           so thats pretty much it enjoy
                   -zach-
Related for September tab
Advertisement will be closed in 10 seconds