Song name
# A B C D E F G H I J K L M N O P Q R S T U V W X Y Z

Ebba Grun - Were Only In It For The Drugs tab

-----------------------------------------------------------------------------
	       We're only in it for the drugs - Ebba Grun
-----------------------------------------------------------------------------
Tabbed by: Jonas
Artist: Ebba Grn
Song: Were only in it for the drugs
Tuning: Standard (EADGBe)

Den hr svenska lten av Ebba Grn r vldigt enkel men kul att spela.
Translation: This swedish song by Ebba Grn is very simple but fun to play.

Intro:
e|---------------------------------------------------------------------------|
B|---------------------------------------------------------------------------|
G|---9-9-9---------9-9-9-9-9-9---9-9-9---------9-9-9-9-9-9-9-----------------|
D|---9-9-9--9-9-9--9-9-9-9-9-9---9-9-9--9-9-9--9-9-9-9-9-9-9--x-2------------|
A|---7-7-7--9-9-9--7-7-7-7-7-7---7-7-7--9-9-9--7-7-7-7-7-7-7-----------------|
E|----------7-7-7-----------------------7-7-7--------------------------------|


Chorus Riff 1:
e|---------------------------------------------------------------------------|
B|---------------------------------------------------------------------------|
G|--9-9-------9-9-------9-9-------9-9-9-9-9----------------------------------|
D|--9-9--9-9--9-9--9-9--9-9--9-9--9-9-9-9-9----------------------------------|
A|--7-7--9-9--7-7--9-9--7-7--9-9--7-7-7-7-7----------------------------------|
E|-------7-7-------7-7-------7-7---------------------------------------------|
  Det finns ingenting att gra...


Chorus riff 2:
e|---------------------------------------------------------------------------|
B|---------------------------------------------------------------------------|
G|--9-9-------9-9--------------------9-9-9-9-9-------------------------------|
D|--9-9--9-9--9-9--111111--7-7--9-9--9-9-9-9-9-------------------------------|
A|--7-7--9-9--7-7--111111--7-7--9-9--7-7-7-7-7-------------------------------|
E|-------7-7-------9-9-9---5-5--7-7------------------------------------------|
  N urskta nu verdrev jag...


Chorus riff 1:
e|---------------------------------------------------------------------------|
B|---------------------------------------------------------------------------|
G|--9-9-------9-9-------9-9-------9-9-9-9-9----------------------------------|
D|--9-9--9-9--9-9--9-9--9-9--9-9--9-9-9-9-9----------------------------------|
A|--7-7--9-9--7-7--9-9--7-7--9-9--7-7-7-7-7----------------------------------|
E|-------7-7-------7-7-------7-7---------------------------------------------|
  Fr s har det alltid varit...

Chorus riff 2:
e|---------------------------------------------------------------------------|
B|---------------------------------------------------------------------------|
G|--9-9-------9-9--------------------9-9-9-9-9-------------------------------|
D|--9-9--9-9--9-9--111111--7-7--9-9--9-9-9-9-9-------------------------------|
A|--7-7--9-9--7-7--111111--7-7--9-9--7-7-7-7-7-------------------------------|
E|-------7-7-------9-9-9---5-5--7-7------------------------------------------|
  Man ska va som en zombie...

Bridge:
e|---------------------------------------------------------------------------|
B|---------------------------------------------------------------------------|
G|---------------------------------------------------------------------------|
D|---7-7--9-9-9-9---7-7--9-9-9-9---7-7---9-9-9-9---7-7---9-9-9-9-------------|
A|---7-7--9-9-9-9---7-7--9-9-9-9---7-7---9-9-9-9---7-7---9-9-9-9-------------|
E|---5-5--7-7-7-7---5-5--7-7-7-7---5-5---7-7-7-7---5-5---7-7-7-7-------------|


Verse riff 1:
e|---------------------------------------------------------------------------|
B|---------------------------------------------------------------------------|
G|---9-9-9-9-9-9-9-9-9-9-----------------------------------------------------|
D|---9-9-9-9-9-9-9-9-9-9--9-9-9-9-9-9-9-9-9-9--x-2---------------------------|
A|---7-7-7-7-7-7-7-7-7-7--9-9-9-9-9-9-9-9-9-9--------------------------------|
E|------------------------7-7-7-7-7-7-7-7-7-7--------------------------------|
  Fr vi var trtta p tunnelbanan...

Verse riff 2:
e|---------------------------------------------------------------------------|
B|---------------------------------------------------------------------------|
G|-------------------------9-9-9-9-9-9--7-7-7-7-7----------------------------|
D|---111111111--9-9-9-9-9--9-9-9-9-9-9--7-7-7-7-7----------------------------|
A|---111111111--9-9-9-9-9--7-7-7-7-7-7--5-5-5-5-5----------------------------|
E|---9-9-9-9-9--7-7-7-7-7----------------------------------------------------|
  Vi ville bara ha ett plejs...

Verse riff 3:
e|---------------------------------------------------------------------------|
B|---------------------------------------------------------------------------|
G|-------------------------9-9-9-9-9-9---------------------------------------|
D|---111111111--9-9-9-9-9--9-9-9-9-9-9--9-9-9-9-9-9--------------------------|
A|---111111111--9-9-9-9-9--7-7-7-7-7-7--9-9-9-9-9-9--------------------------|
E|---9-9-9-9-9--7-7-7-7-7---------------7-7-7-7-7-7--------------------------|
  Vi ville bara ha, nnting fr oss!

After the first verse they repeat it again only with different lyrics:

Verse riff 1: Fr vi var trtta p zombielivet...
Verse riff 2: Vi ville bara ha ett plejs...
Verse riff 3: Vi ville bara ha, nnting fr oss!

Then they go back to the chorus again:

Chorus riff 1: Fr det finns ingenting att gra...
Chrous riff 2: N urskta nu verdrev jag...
Chorus riff 1: Fr s har det alltid varit...
Chorus riff 2: Man ska va som en zombie...


Then the bridge and verse again, but with different lyrics:

Bridge:
Verse riff 1: Vi brjade med konserter...
Verse riff 2: Det tyckte inte den svenska byrkratin...
Verse riff 3. Det tyckte inte vr stolta maskin!
Verse riff 1: Dom sa stopp...
Verse riff 2: Det tyckte allts den svenska byrkratin...
Verse riff 3: Det tyckte allts vr stolta maskin!

Then they go back to the chorus but with different lyrics:

Chrous riff 1: Det finns ju diskotek...
Chrous riff 2: Och dr kan vi hcka...
Chours riff 1: Dr kan vi g som zombies...
Chorus riff 2: Dr kan vi hcka bst fan vi vill...

Then they play the verse again but yet again with different lyrics:

Verse riff 2: Dr ute kan vi viska...
Verse riff 3: Du han ser s bl ut...

Then it's the chorus without any lyrics:

Chorus riff 1:
Chorus riff 2:
Chorus riff 1:
Chorus riff 2:
Chorus riff 1: Aaahhhh...
Chours riff 2: Aaahhhh...
Chorus riff 1: Aaahhhh...
Chorus riff 2: Aaahhhh...

Then it's the last two choruses:

Chorus riff 1: Det finns ingenting att gra...
Chorus riff 2: N urskta nu verdrev jag...
Chrous riff 1: Fr s har det alltid varit...
Chorus riff 2: Man ska va som en zombie va njd med sin lott och aldrig frga om nt!

That's We're only in it for the drugs by Ebba Grn! Have fun playing it and please drop 
coment cause I like reading them.


| /  slide up
| \  slide down
| h  hammer-on
| p  pull-off
| ~  vibrato
| +  harmonic
| x  Mute note
=============================================================================
Tap to rate this tab
# A B C D E F G H I J K L M N O P Q R S T U V W X Y Z