Song name
# A B C D E F G H I J K L M N O P Q R S T U V W X Y Z

Ebony Bones - Warrior tab

JUST CONTINUALLY PLAY THIS BIT=
E--------------|
B--------------|
G--------------|
D-----0-2------|
A-2-2----------|
E-0------------|

THEN THE SONG CHANGES TO THIS=
E----------------------|
B----------------------|
G----------------------|
D----------------------|
A---3-3-2--------------|
E---------1-0----------|
HAVE FUN XXX
LET ME KNOW IF U HAVE ANY SUGESTIONS AND CHECK OUT MY OTHER TABS ROCK ON PEEPZ!!!
Tap to rate this tab
# A B C D E F G H I J K L M N O P Q R S T U V W X Y Z