Song name
# A B C D E F G H I J K L M N O P Q R S T U V W X Y Z

Ed Helms - I Will Remember You tab

Standard Tuning
Capo on 3rd fret


Intro

E-----------------1---1---3---3---3--|
B-----------1-----1---1---0---0---0--|
G---------0------2p0--0---0---0---0--|
D-----0h2---------3---3---0---0---0--|
A---3-------------3---3---2---2---2--|
E-------------------------3---3---3--|
                                 Strum


Chorus

C         F           G   
I will remember you,
 C            F             G  
will you remember me?
 C                   F      C        Am    
Don't let your life pass you by,  
C             F        G     C
weep not for the memories.


Verse

   C                       F                 G         C
Remember all the good times that we had?
     C                   F                           G             Am
I let them slip away from us when things got bad.
      C                        F                G               
How clearly I first saw you smiling in the sun
         C                        F                     G            
I wanna feel you warmth upon me I wanna be the one


Chorus


C         F           G   
I will remember you,
 C            F             G  
will you remember me?
 C                   F      C        Am    
Don't let your life pass you by,  
C             F        G     C
and weep not for the memories.
       C             F      C        Am
Don't let your life pass you by,

(2 second pause)

     C        F          G     C
and weep not for the memories.


End

E---0---0---0---0---0-|
B---1---1---1---1---1-|
G---0---0---0---0---0-|
D---2-  0h2--2---2---2|
A---3---3---3---3---3-|
E---------------------|
Tap to rate this tab
# A B C D E F G H I J K L M N O P Q R S T U V W X Y Z