Song name
# A B C D E F G H I J K L M N O P Q R S T U V W X Y Z

Ed Sheeran - Small Bump tab

-------------------------------------------------------------------------------
			     Small Bump (intro) - Ed Sheeran
-------------------------------------------------------------------------------
Tabbed by: Connor Brown
Email: Henitex@live.co.uk

Tuning: EADGBe (Standard)

(Capo on the 3rd fret)

e|---------------------------------------------------------------------------|
B|---------------------------------------------------------------------------|
G|--------0-----0-----0-----0------0-----0--3/4--3p0-------------------------|
D|----2-------2-----4-----2-----0------0-------------------------------------|
A|----2-----2-------2-----3-----------------2/5--2---------------------------|
E|------------------------------3----3---------------------------------------|
      Repeat

************************************
 / = slide up
 p = Pull-off
Tap to rate this tab
 
# A B C D E F G H I J K L M N O P Q R S T U V W X Y Z