Song name
# A B C D E F G H I J K L M N O P Q R S T U V W X Y Z

Ed - Morrowind tab

1-----------0--0-3---0-------------------------| i don't have the full version
2--0-1--1-3-1-----3---3-1-------0-1------------| so you guys have to hold on
3-2--2------------0-------2----2--2--2--2------| to this <3 :D ^^
4-------------------------3--------------------|
5----------------------------------------------|
6----------------------------------------------|

1-----0------0-3-5--5-7-5--5-7-8-7-5-3---0-----|
2-1-3-1-1-1------6------3------5-3-1-0-3--3-1--|
3--------------------------------------0-----2-|
4--------------------------------------------3-|
5----------------------------------------------|
6----------------------------------------------|

1-----------0--0-3---0-------------------------|
2--0-1--1-3-1-----3---3-1-------0-1------------|
3-2--2------------0-------2----2--2--2--2------|
4-------------------------3--------------------|
5----------------------------------------------|
6----------------------------------------------|
Tap to rate this tab
 
# A B C D E F G H I J K L M N O P Q R S T U V W X Y Z