Song name
# A B C D E F G H I J K L M N O P Q R S T U V W X Y Z

Eddie From Ohio - 20,000 Hearts[in Progress] tab

20,000 Hearts 
Eddie from Ohio

Tabulature by Ender [sthanatos@hotmail.com]

[In Progress]

Whole song capoed on the first fret if you want your life to be easier. This is still very much in progress, but since there is NOWHERE you can get this song tabbed, I wanted to share while I was working. So other people can start helping anytime, really!


[Intro]

--------1---------------1--------------------------------------------
---------------------------------------------------------------------
--------------------------3------------------------------------------
------7---8-7---------5-----5--------------3-5--3---------3-5-3------
----5---------5-----3---------3----------3--------3-----1-------1----
-----------------------------------113h5-----------------------------

----------1-------------1-----------------1-------------1------------
------------1-------------1-----------------1-------------1----------
-------3------3------------------------------------------------------
----------------------7-----7----------8------8-------7-----7--------
---------------------------------------------------------------------
---3---------------5----------------6---------------5----------------

--------1--------------1---------------1-3-p1--------1-3-p1----------
----------1--------------1-------------------------------------------
-------------------------------------3--------3-------------3--------
------3-----3--------7-----7-----------------------------------------
----------------------------------1---------------1------------------
--3----------------5-------------------------------------------------

[Verse 1]

    First we lived in India	        In winter it rains there 
--------1-------------------------1----------------------------------
---------------------------------------------------------------------
------------------------------------3--------------------------------
------7---8-7-------------------5-----5------------------------------
----5---------5---------------3---------3----------------------------
---------------------------------------------------------------------


    everyday.					We were
---------------------------------------------------------------------
---------------------------------------------------------------------
---------------------------------------------------------------------
-----------3-5-3-------------3-5-3-----------------------------------
--------3--------3---------1--------1--------------------------------
----3h5--------------------------------------------------------------


          younger then; we were 	 children  in
--------1-------------------------------1----------------------------
---------------------------------------------------------------------
------------------------------------------3--------------------------
------7---8-7-------------------------5-----5------------------------
----5---------5---------------------3---------3----------------------
---------------------------------------------------------------------

  India.
---------------------------------------------------------------------
---------------------------------------------------------------------
---------------------------------------------------------------------
-----------3-5-3-------------3-5-3-----------------------------------
--------3--------3---------1--------1--------------------------------
----3h5--------------------------------------------------------------

[Repeat pattern for second half of verse]

There were signs and people
we would never understand.
You said "Hold my hand,"
and I held your hand.


[I'm still working on the Chorus. It'sa variation of the second part of the intro. Contact me if you want to correct something or even better, help me :) ]
Tap to rate this tab
# A B C D E F G H I J K L M N O P Q R S T U V W X Y Z