Song name
# A B C D E F G H I J K L M N O P Q R S T U V W X Y Z

Eddie Money - Two Tickets To Paradise tab

tabs by Rodrigo 
it's my first tab

Intro
E|-----------------------------------------------|
B|-----------------------------------------------|
G|-6-7-/9-9-7-7-6-6\-4-4\-2-4/6~-----------------|
D|-----------------------------------------------|
A|-----------------------------------------------|
E|-----------------------------------------------|

E|-----------------------------------------------|
B|-----------------------------------------------|
G|-6-7-/9-9-7-7-6-6\-4-4-4h6p4-2~----------------|
D|-----------------------------------------------|
A|-----------------------------------------------|
E|-----------------------------------------------|

Repeat 2X
E|--------------|--------------|--------------|------------|
B|--------------|--------------|--------------|------------|
G|--------------|--------------|--------------|------------|
D|---7-6--------|--------------|--7-6---------|------------|
A|------7-7\5~--|--------------|--------7-7---|------------|
E|--------------|--------------|--------------|------------|
     Waited so long               Waited so long

Chorus
E|-----------------|------------|
B|-----------------|------------|
G|------7----------|------------|
D|------7--5--5----|---7--------|
A|------5--5--5----|---7--------|
E|---------3--3----|---5--------|
I've Got 2 Tickets To Paradise

E|-----------------|------------|
B|-----------------|------------|
G|------7----------|------------|
D|------7--5--5----|---7--------|
A|------5--5--5----|---7--------|
E|---------3--3----|---5--------|
Won't you Pack Your Bags We'll Leave Tonight.

Solo
E|-----------------------------------------------|
B|-----------------------------------------------|
G|-6-7-/9-9-7-7-6-6\-4-4\-2-4/6~-----------------|
D|-----------------------------------------------|
A|-----------------------------------------------|
E|-----------------------------------------------|

E|-----------------------------------------------|
B|-----------------------------------------------|
G|-6-7-/9-9-7-7-6-6\-4-4-4h6p4-2~----------------|
D|-----------------------------------------------|
A|-----------------------------------------------|
E|-----------------------------------------------|

E|------------|--------------------|---------------------------------------|
B|------------|------10------------|------10-10----10h12-10----10h12-10----|
G|-9-9-9~-----|-9h11----9h11p9-9~--|-9/11-------11----------11----------11-|
D|------------|--------------------|---------------------------------------|
A|------------|--------------------|---------------------------------------|
E|------------|--------------------|---------------------------------------|

E|--------------------------------------------|-----------------------------|
B|-12b14~-12b14r12-10---12p10---10-12-12b14~--|-12b15-12b14-12-10---10-12b14|
G|--------------------11------11--------------|-------------------11--------|
D|--------------------------------------------|-----------------------------|
A|--------------------------------------------|-----------------------------|
E|--------------------------------------------|-----------------------------|

E|-12b14-12-10-----------------------------------------------------------|
B|-------------12b14r12-10---12p10---10-12p10---12p10---10---------------|
G|-------------------------11------11---------11------11---11p9-9~-------|
D|-----------------------------------------------------------------------|
A|-----------------------------------------------------------------------|
E|-----------------------------------------------------------------------|

E|-----------------------------------------------------------------------|
B|------10-12p10---12p10---10---10-12p10---10-12p10---10-----------------|
G|-9/11----------11------11---11---------11---------11-------------------|
D|-----------------------------------------------------------------------|
A|-----------------------------------------------------------------------|
E|-----------------------------------------------------------------------|

E|--------------------------------------------------------------------------|
B|---10-12p10---12p10---12p10---12p10---12b14-12b14-12p10---10--------------|
G|-11---------11------11------11------11------------------11---------16-14~-|
D|-------------------------------------------------------------14h16--------|
A|--------------------------------------------------------------------------|
E|--------------------------------------------------------------------------|

E|----------------17-----------------------------------------------------|
B|-----------------------------------------------------------------------|
G|-------14-16b18----16b18r16-14---16---14~------------------------------|
D|-14h16-------------------------16---16---------------------------------|
A|-----------------------------------------------------------------------|
E|-----------------------------------------------------------------------|

E|-----------------------------------------------------------------------|
B|-17b19-17-14-17---14---------------------------------------------------|
G|----------------16---16b18r16-14---16p14---14--------------------------|
D|---------------------------------16------16---16p14---14-14h16-14~-----|
A|----------------------------------------------------16-----------------|
E|-----------------------------------------------------------------------|

E|-------------------------------------------------------------------------|
B|-------------------------------------------------------------------------|
G|-------14-------14-------14-------14-------14-------14-------14-------14-|
D|-14h16----14h16----14h16----14h16----14h16----14h16----14h16----14h16----|
A|-------------------------------------------------------------------------|
E|-------------------------------------------------------------------------|

E|-------------------------------------------------------------------------|
B|-------------------------------------------------------------------------|
G|-------14-------14-------14-------14-------14-------14-------14-------14-|
D|-14h16----14h16----14h16----14h16----14h16----14h16----14h16----14h16----|
A|-------------------------------------------------------------------------|
E|-------------------------------------------------------------------------|

E|----------------17-------------------------------------------------------|
B|-------------------------------------------------------------------------|
G|-------14-16b18----------------------------------------------------------|
D|-14h16-------------------------------------------------------------------|
A|-------------------------------------------------------------------------|
E|-------------------------------------------------------------------------|

I hope you learned..
Tap to rate this tab
# A B C D E F G H I J K L M N O P Q R S T U V W X Y Z