Song name
# A B C D E F G H I J K L M N O P Q R S T U V W X Y Z

Eddie Vedder - Tuolumne tab

Well, upon listening to, and playing this song I heard a bit more of a Dust In the Wind 
of picking pattern (which since the picking is a little slower you may find helpful in 
the pattern down) , and I didn't notice any tabs with the whole thing, so, here goes:


E-----------------------------1-------1-----0-------0-----|
B-1-------1-----3-------3---------1-------1-----1-------1-|
G-----0-------0-----0-------0---0-------0-----0-------0---|
D---2-------2-----2-------2-------------------------------|
A-3-----3-------3-----3-------3-----3-------3-----3-------|
E---------------------------------------------------------|

   The above is played four times then goes into:
E----------------------------------------------------------|
B-1--------1-----3-------3-----1-------1-----3-------3-----|
G-----2--------2-----2-------2-----2-------2-----2-------2-|
D---0--------0-----0-------0-----0-------0-----0-------0---|
A----------------------------------------------------------|
E-2------2-------2-----2-------2-----2-------2-----2-------|

E---------------------------------------------------------|
B-1-------1-----3-------3-----1-------1-----3-------3-1/3-|
G-----2-------2-----2-------2-----2-------2-----2---------|
D---0-------0-----0-------0-----0-------0-----0-----------|
A---------------------------------------------------------|
E-1-----1-------1-----1-------1-----1-------1-----1-------|

   Then this twice:
E-----------------------------3-------3-----0-------0-----|
B-1-------1-----3-------3---------1-------1-----1-------1-|
G-----0-------0-----0-------0---0-------0-----0-------0---|
D---2-------2-----2-------2-------------------------------|
A-3-----3-------3-----3-------3-----3-------3-----3-------|
E---------------------------------------------------------|

   Ditto for this:
E-----------------------------1-------1-----0-------0-----|
B-1-------1-----3-------3---------1-------1-----1-------1-|
G-----0-------0-----0-------0---0-------0-----0-------0---|
D---2-------2-----2-------2-------------------------------|
A-3-----3-------3-----3-------3-----3-------3-----3-------|
E---------------------------------------------------------|

   And it ends with that second part:
E----------------------------------------------------------|
B-1--------1-----3-------3-----1-------1-----3-------3-----|
G-----2--------2-----2-------2-----2-------2-----2-------2-|
D---0--------0-----0-------0-----0-------0-----0-------0---|
A----------------------------------------------------------|
E-2------2-------2-----2-------2-----2-------2-----2-------|

E---------------------------------------------------------|
B-1-------1-----3-------3-----1-------1-----3-------3-1/3-|
G-----2-------2-----2-------2-----2-------2-----2---------|
D---0-------0-----0-------0-----0-------0-----0-----------|
A---------------------------------------------------------|
E-1-----1-------1-----1-------1-----1-------1-----1-------|

It looks a lot harder than it is, I promise. Good luck!
Tap to rate this tab
# A B C D E F G H I J K L M N O P Q R S T U V W X Y Z