Song name
# A B C D E F G H I J K L M N O P Q R S T U V W X Y Z

Eddy Current Suppression Ring - Gentleman tab

 Hello everyone,
 got out gentleman by Eddy Current Suppression Ring.
 Standard tuning.
 Chords:
 E
 A
 E
 D
 A
 E

 Play these chords through out the song.
 If you want to play the song easier you can skip the second E part and play
 it like the first one. The picking changes a bit through out the song but 
 the chords all go the same.




    |----0-------------------------|   
    |------0---0------2---3-2---2--|  
    |--------1----------2-----2----|  
    |------------------------------|  
    |---------------0--------------|  
    |--0---------------------------|  



    |------0--------2---3-2---2-----------------|
    |--------0--------3-----3------2---3-2---2--|  
    |----1-----1---------------------2-----2----|   
    |-------------0-----------------------------|  
    |----------------------------0--------------|  
    |--0----------------------------------------|  


   Hope you enjoy // Harald

Tap to rate this tab
# A B C D E F G H I J K L M N O P Q R S T U V W X Y Z