Song name
# A B C D E F G H I J K L M N O P Q R S T U V W X Y Z

Edguy - Out Of Control tab

<              Title:  Out of control              >
<                  Artist:  Edguy                  >
<             Album:  Vain glory opera             >
<                                                  >
<           Trancribed by:  Niklas Lehto           >
<                                                  >
<     Send your comments, suggestion e.t.c to:     >
<               dreadman@mail.bip.net              >
<            http://www.sarctica.cjb.net           >
 \/\/\/\/\/\/\/\/\/\/\/\/\/\/\/\/\/\/\/\/\/\/\/\/\/

*Disable word wrap under edit to view this document correctly!

Tablature explanation:

h  = hammer on             .   = Palm mute
p  = pull off              A.H = Artificial harmonics
b  = Bend                  pb  = prebend
r  = release bend          s   = slide
* = strike the note THEN (when * shows up) mute it
[x] = Place your fingertip on the fret and pick the
      string to produce an artificial harmonics!

[Intro]

Keyboardsection:

| Em  | C  | Em | C  |

Guitar enters

I'll give you two alternative ways to play the introlead.
Beginners should try the first one, it's simpler to play but
gives not as much control to it as the second alternative.

The easy one:

   E5                                    C5
e||----|--------------------------------|----------------------|[5]-|
B||----|[7]-----------------------------|[5]---------------[5]-|----|
G||[5]-|--------[5]-[7]-[5]-[7]-[5]-[7]-|----------------[5]---|----|
D||----|--------------------------------|--------------[5]-----|----|
A||----|--------------------------------|----------------------|----|
E||----|--------------------------------|----------------------|----|

This one gives you more control:

   E5                                 C5
e||-----|----------------------------|------------------------|12---------|
B||-----|----------------------------|12-------------------12-|-----------|
G||12~--|11~-----12-11-12-11---12-11-|------------------12----|-----------|
D||-----|----------------------------|---------------12-------|-----------|
A||-----|----------------------------|------------------------|-----------|
E||-----|----------------------------|------------------------|-----------|
   Artificial harmonics all the way

   E5
e||------------------------------------------------|------------------------
--------------|
B||------------------------------------------------|------------------------
--------------|
G||12-12-12-12-12-12-12-12-11-11-11-11-11-11-12-12-|9-9-9-9-9-9-9-9---------
--------------|
D||------------------------------------------------|----------------12-12-12
-12-12-12-9-9-|
A||------------------------------------------------|------------------------
--------------|
E||------------------------------------------------|------------------------
--------------|

   C5                                                        Note: The
string is only hit once.
e||------------------------------------------------|------------------------
----------|------|
B||------------------------------------------------|------------------------
A.H-------|------|
G||------------------------------------------------|------------------------
11pb12r11b|12~---|
D||10-10-10-10-10-10-10-10-10-10-10-10-10-10-10-10-|10-10-10-10-10-10-10-10-
----------|------|
A||------------------------------------------------|------------------------
----------|------|
E||------------------------------------------------|------------------------
----------|------|


[Intro + verse]

e||--------------------------------|--------------------------------|
B||--------------------------------|--------------------------------|
G||--------------------------------|--------------------------------|
D||--------------------------------|--------------------------------|
A||2---2---2---2---2---2-----------|2---2---2---2---2---2-----------|
E||0---0---0---0---0---0---0-0-0-0-|0---0---0---0---0---0---0-0-0-0-|
 ||P.M .   .   .   .   .   . . . .  .   .   .   .   .   .   . . . . |
 ||                                                                 |
e||--------------------------------|--------------------------------|
B||--------------------------------|--------------------------------|
G||9-----------------------9-9-----|--------------------------------|
D||----------------------------9-9-|12--------9h12-9----------------|
A||--------------------------------|--------------------------------|
E||--------------------------------|--------------------------------|


e||--------------------------------|--------------------------------|
B||--------------------------------|--------------------------------|
G||--------------------------------|--------------------------------|
D||5---5---5---5---5---5-----------|5---5---5---5---5---5-----------|
A||3---3---3---3---3---3---3-3-3-3-|3---3---3---3---3---3---3-3-3-3-|
E||--------------------------------|--------------------------------|
 ||P.M .   .   .   .   .   . . . .  .   .   .   .   .   .   . . . . |
 ||                                                                 |
e||--------------------------------|--------------------------------|
B||--------------------------------|--------------------------------|
G||--------------------------------|--------------------------------|
D||10----------------------1010----|9---------------10----9----10---|
A||----------------------------1010|--------------------------------|
E||--------------------------------|--------------------------------|


[Bridge]

e||2---------------3-----2-----0---|0-----------0-------------------|2------
---------3-----2-----0---|
B||3---------------3-----3-----3---|1------------1------------------|3------
---------3-----3-----3---|
G||2-------------------------------|--------------0-----------------|2------
-------------------------|
D||0-------------------------------|---------------2----------------|0------
-------------------------|
A||--------------------------------|----------------3---------------|-------
-------------------------|
E||--------------------------------|--------------------------------|-------
-------------------------|
 ||
|
e||--------2---------------2-------|--------0---------------0-------|-------
-2---------------2-------|
B||----3-----3---------3-----3-----|----1-----1---------1-----1-----|----3--
---3---------3-----3-----|
G||--2---2-------2---2---2-------2-|--0---0-------0---0---0-------0-|--2---2
-------2---2---2-------2-|
D||0---------------0---------------|--------------------------------|0------
---------0---------------|
A||--------------------------------|3---------------3---------------|-------
-------------------------|
E||--------------------------------|--------------------------------|-------
-------------------------|

e||------------------------------------------------------------|
B||------------------------------------------------------------|
G||------------------------------------------------------------|
D||-------------------------------------------------------14s4-|
A||9---9---9---9---9---9---9---9---9---9---9---9---9-*----14s4-|
E||7---7---7---7---7---7---7---7---7---7---7---7---7-*----12s2-|
 ||                                                            |
e||------------------------------------------------------------|
B||------------------------------------------------------------|
G||4*-------4*-----6*------4*------7*------6---7-6-4-*---------|
D||----4-------4-------4-------4-------4-----------------------|
A||------------------------------------------------------------|
E||------------------------------------------------------------|
       .       .       .       .       .

[Chorus]

e||-------------------------------------|
B||-------------------------------------|
G||-------4------5----------------------|
D||2------4------5--------------4--4--4-|
A||2------2------3------5--5--5-5555555-|
E||0--------------------33333333--------|
 ||                      .. .. . .. ..  | Repeat X 2
e||-------------------------------------|
B||-------------------------------------|
G||-------4------5----------------------|
D||2------4------5------555555557777777-|
A||2------2------3----------------------|
E||0------------------------------------|
                         .. .. . .. ..

[Lead 1]

   E5                                               C5
e||------------------------------------------------|------------------------
-----------------------|
B||------------------------------------------------|------------------------
-----------------------|
G||9*--9*--9*--9*--9*--9p7-7*--7*--7h9-9*--9*--9p7-|5*--5*--5*--5*--4h5-5p4-
5*--5*--5*--4h5p4-----4|
D||------------------------------------------------|------------------------
-----------------5-5-5-|
A||------------------------------------------------|------------------------
------------------7-7--|
E||------------------------------------------------|------------------------
-----------------------|

   E5                                               C5
e||------------------------------------------------|------------------------
--------A.H------------|
B||5*--5*--5*--5*--5*--5h7-7*--7*--7h8-8*--8*--8---|------------------------
--------7pb8-r7-b8-----|
G||------------------------------------------------|5*--5*--5*--5*--4h5-5p4-
5*--5*-----------------|
D||------------------------------------------------|------------------------
-----------------------|
A||------------------------------------------------|------------------------
-----------------------|
E||------------------------------------------------|------------------------
-----------------------|


[Lead 2]

e||-----------------------------------------------|
B||-----------------------------------------------|
G||9*--9*--9*--9*--9*--7h9-9*--9*--9*--9*--9*--7h9|
D||-----------------------------------------------|
A||-----------------------------------------------|
E||-----------------------------------------------|
 ||                                               |
e||-----------------------------------------------|
B||-----------------------------------------------|
G||-----------------------------------------------|
D||9*--9*--9*--9*--9*--7h9-9*--9*--9*--9*--9*--7h9|
A||-----------------------------------------------|
E||-----------------------------------------------|


[Solo]

/ Jens & Dirk
   C5                       D5                         C5
G5          D5
e||---------------------------------------------------|---------------------
---------------------------|
B||-------12b13r12-10----10---------10b12r10----------|-------12b13r12-10---
-10----10-12-13-13b15------|
G||9------------------12----11---------------12-11----|9------------------12
----12---------------------|
D||------------------------------------------------12-|---------------------
---------------------------|
A||---------------------------------------------------|---------------------
---------------------------|
E||---------------------------------------------------|---------------------
---------------------------|
 ||
|
e||---------------------------------------------------|---------------------
-------------12-12b14------|
B||-------15b17r15-13-12-13---------13b15r13-12-------|-------15b17r15-13-12
-13-12-13-15---------------|
G||12-----------------------14------------------14-11-|12-------------------
---------------------------|
D||---------------------------------------------------|---------------------
---------------------------|
A||---------------------------------------------------|---------------------
---------------------------|
E||---------------------------------------------------|---------------------
---------------------------|

   C5                       D5                         E5
e||---------------------------------------------------|---------------------
-----------|
B||-------12b13r12-10----10---------10b12r10----------|---------------------
-----------|
G||9------------------12----11---------------12-11-12-|12------11b12r11-9---
---11b12~--|
D||---------------------------------------------------|---------------------
-----------|
A||---------------------------------------------------|---------------------
-----------|
E||---------------------------------------------------|---------------------
-----------|
 ||
|
e||---------------------------------------------------|---------------------
-----------|
B||-------15b17r15-13-12-13---------13b15r13-12----12-|12-------------------
---10b12~--|
G||12-----------------------14------------------14----|-------14b16r14-12---
-----------|
D||---------------------------------------------------|---------------------
-----------|
A||---------------------------------------------------|---------------------
-----------|
E||---------------------------------------------------|---------------------
-----------|

/ Jens
   B5
e||16---12h13h16---12h13h16-13-12-13-12----12-13-16-13-12----12-------------
----------------------------------|
B||-------------------------------------15----------------15----15-13-15-13-
12-13-12----12--------------------|
G||-------------------------------------------------------------------------
---------14----14-13-14b16---14---|
D||-------------------------------------------------------------------------
----------------------------------|
A||-------------------------------------------------------------------------
----------------------------------|
E||-------------------------------------------------------------------------
----------------------------------|

e||------------------------------------------------------------12-13-16-13-1
2----12-13-16-13-12----12-13-16-13-12----12-------------------------|
B||---------------------------------------12----12-13-12-13-15--------------
--15----------------15----------------15----15-13-15-13-12-15b17~---|
G||13h14p13-13-13h14p13-13-13h14p13-13-14----14-----------------------------
--------------------------------------------------------------------|
D||-------------------------------------------------------------------------
--------------------------------------------------------------------|
A||-------------------------------------------------------------------------
--------------------------------------------------------------------|
E||-------------------------------------------------------------------------
--------------------------------------------------------------------|

/ Tolkki
   E5
e||--------------------------------------------------|----------------------
-------|
B||-----------12*12b13r12----------------------------|-----------12b13r12-13
b15r---|
G||---9*--9*-------------------9*--9*--11*11b12r11---|---9*--9*-------------
-------|
D||--------------------------------------------------|----------------------
-------|
A||--------------------------------------------------|----------------------
-------|
E||--------------------------------------------------|----------------------
-------|

e||---------14-15-14-12------------------12-14-15-14-12-14-12---------------
---------|
B||12-13-15---------------15-13-12-13-15----------------------15-13-12-13-15
-13-12---|
G||-------------------------------------------------------------------------
---------|
D||-------------------------------------------------------------------------
---------|
A||-------------------------------------------------------------------------
---------|
E||-------------------------------------------------------------------------
---------|

/ Jens
   H5
e||-------------------------------------------------------------------------
---------------|
B||4p0h4p0-5p0h5p0-7p0h7p0-8p0h8p0-10p0h10p0-12p0h12p0-13p12p10h12p10h12-13p
12p10h12p10h12-|
G||-------------------------------------------------------------------------
---------------|
D||-------------------------------------------------------------------------
---------------|
A||-------------------------------------------------------------------------
---------------|
E||-------------------------------------------------------------------------
---------------|

e||---------------------------------12-12b14-12-----------------------------
-----------12----------------|
B||16---12h13h16---12h13h16---12h13-------------13-12-13-16-13-12----12-13-1
6-13-12-13----13-12-13-12~---|
G||---------------------------------------------------------------14--------
-----------------------------|
D||-------------------------------------------------------------------------
-----------------------------|
A||-------------------------------------------------------------------------
-----------------------------|
E||-------------------------------------------------------------------------
-----------------------------|

/ Tolkki
   H5
e||17-15-14----15-14--------------------------------------------------------
----------|
B||---------17-------17-15---------?????------------------------------------
----------|
G||-------------------------------------------------------------------------
----------|
D||-------------------------------------------------------------------------
----------|
A||-------------------------------------------------------------------------
----------|
E||-------------------------------------------------------------------------
----------|
   Sorry, it's to fast for me :-{


[Stick]

e||----------------------------------------------------|
B||----------------------------------------------------|
G||7--------------------4-4*--4-4*--4-4*--4-4*--4------|
D||7------5------5------4-4*--4-4*--4-4*--4-4*--4------|
A||5------5------5------2-2*--2-2*--2-2*--2-2*--2------|
E||-------3------3-------------------------------------|


||||/\/\/\/\/\/\/\/\/\/\/\/\/\/\/\/\/\/\/\/\/\/\/\/\/\/\/\/\/\/\/\/\/\/\||||
||||\/\/\/\/\/\/\/\/\/\/\/\/\/\/\/\/\/\/\/\/\/\/\/\/\/\/\/\/\/\/\/\/\/\/||||


[Intro]

[Verse]

Into a place of darkness, he was born to live alone
He got one big desire: one day he'd get the crown:
Hey devil come on help me now
Be the one to pull my string
Let me be your slave to serve you
To let me be the king

[Bridge]

Just give me a sign
Take on my mind and let me stay blind
A victim of life too weak to be kind

[Chorus]

Out of control
My life is a chamber of tears, fear and hate
Out of control
Help me to gain the crown, here is my fate

[Lead 1]

[Verse]

Wherever I may roam there will be hate and pain
Eye for eye, tooth for tooth, respect is what I gain
I look up to Mr. Crowley, evil powers: now unite!
I will be your darkest nightmare
My life's a fatal fight

[Bridge]

Just give me a sign
Take on my mind and let me stay blind
A victim of life too weak to be kind

[Chorus]

Out of control
My life is a chamber of tears, fear and hate
Out of control
Help me to gain the crown, here is my fate

[Lead 2]

[Solo: Jens & Dirk / Jens / Timo Tolkki / Jens / Timo Tolkki]

[Stick]

"Listen up my friend: You just cry for a hand
But you only pretend that you're bad - now!"

Well, take on my mind...

[Chorus]

Out of control
My life is a chamber of tears, fear and hate
Out of control
Help me to gain the crown
Tap to rate this tab
# A B C D E F G H I J K L M N O P Q R S T U V W X Y Z