Song name
# A B C D E F G H I J K L M N O P Q R S T U V W X Y Z

Edguy - Rocket Ride tab

GUITAR I

INTRO

E|---------------------------|
B|---------------------------|
G|-6-------------------------|
D|---9-8--------9-8-6--------|
A|---------------------------|
D|---------------------------|

E|---------------------------|
B|---------------------------|
G|-6-------------------------|
D|---9-8-9-8-6--9-8-6-6/4-6--|
A|---------------------------|
D|---------------------------|

PRE VERSE

E|--------------------------|
B|--------------------------|
G|--------------------------|
D|-9--11--------------------|
A|--------------------------|
D|--------------------------|

GUITAR II

INTRO - NONE

PREVERSE

E|--------------------------|
B|--------------------------|
G|-4---6--------------------|
D|-4---6--------------------|
A|-2---4--------------------|
D|--------------------------|
Tap to rate this tab
 
# A B C D E F G H I J K L M N O P Q R S T U V W X Y Z