Edison Glass - You Mean The World To Me tab

You Mean The World To Me By Edison Glass
From "A Burn Or A Shiver"
Tuned a half-step down
Tabbed By Trevor N


Intro/Verse
eb|------------------------------------------------------------------|
Bb|---7---7-----7-----4---4-----4-----5---5-----5-----0---0----------|
Gb|-----6---6-----6-----4---4-----4-----4---4-----4-----3---3---3-4--|
Db|-----------------------------------------------------------4------|
Ab|-6---------6-----2---------2-----4---------4-----1----------------|
Eb|------------------------------------------------------------------|

Pre-Chorus
eb|----------------------------------------------------|
Bb|----------------------(0)----------------------(0)--|
Gb|----------------------(3)----------------------(3)--|
Db|----------------------(4)----------------------(4)--|
Ab|-2---4-4/6-4-2-2-----------2-4-4/6-6b(7)6-2-2-------|
Eb|---0-------------0-0-4---2-0------------------4-----|

Chorus
B, G#m+5, C#m, F#
Tap to rate this tab
 
# A B C D E F G H I J K L M N O P Q R S T U V W X Y Z