Song name
# A B C D E F G H I J K L M N O P Q R S T U V W X Y Z

Editors - The Boxer tab

-----------------------------------------------------------------------------
			     The Boxer - Editors
-----------------------------------------------------------------------------
Tabbed by: Ross Adamson

Tuning: Standard

Verse

(May be played on bass but I've tabbed it for the guitar)

e|---------------------------------------------------------------------------|
B|---------------------------------------------------------------------------|
G|---------------------------------------------------------------------------|
D|---------------------------------------------------------------------------|
A|-9-9-9-9-7---------5-5-5-5-5-4---------------------------------------------|
E|-----------9-9-9-7-------------7-7-7-5-------------------------------------|

(Repeat as neccessary)

Then Ed's guitar kicks in with:

e|--2-4-5-7-9-7-5-9-3-2------------------------------------------------------|
B|----------------------3-2--------------------------------------------------|
G|---------------------------------------------------------------------------|
D|---------------------------------------------------------------------------|
A|---------------------------------------------------------------------------|
E|---------------------------------------------------------------------------|

(Repeat as neccessary)

Chorus:

e|--12--16--14--14-7-5-4-----0-4-2----9-7-4-2--------------------------------|
B|---------------------------------------------------------------------------|
G|---------------------------------------------------------------------------|
D|---------------------------------------------------------------------------|
A|---------------------------------------------------------------------------|
E|---------------------------------------------------------------------------|

Straight away it goes back to:

e|--2-4-5-7-9-7-5-9-3-2------------------------------------------------------|
B|----------------------3-2--------------------------------------------------|
G|---------------------------------------------------------------------------|
D|---------------------------------------------------------------------------|
A|---------------------------------------------------------------------------|
E|---------------------------------------------------------------------------|

That's everything you need to know for the song!
Tap to rate this tab
# A B C D E F G H I J K L M N O P Q R S T U V W X Y Z