Song name
# A B C D E F G H I J K L M N O P Q R S T U V W X Y Z

Edje - Wasted tab

Copyright 2002
Wasted
words and music by
Dominic Gurein


Slowly:

    Bm           A         G
[------------------------------------]
[---3p2----------2----------0--------]
[-------4-----------2---------0------] Repeat
[---------4-----------2----------0---]  This Over Verses
[---2--------2---0------0------------]
[---------------------------3--------]

Solo in Bm penatonic scale
  (make somthing up)

Hard part

[-----------------------------------------]
[-----------------------------------------]
[-----------------------------------------]repeat
[-----------------------------------------]  over pre-chorus
[-9-x-9-x-7-x-7-x-5-x-5-x-7-x-7-x-9-x-9---]
[-7-x-7-x-5-x-5-x-3-x-3-x-5-x-5-x-7-x-7---]

Chorus

[-------------------------------]
[-------------------------------]
[-------------------------------]
[-------------------------------]
[-9\---7\---5\---4\----5-7-9----]
[-7\---5\---3\---2\----3-5-7----]

After solo
do breaks inbetween chorus
Tap to rate this tab
# A B C D E F G H I J K L M N O P Q R S T U V W X Y Z