Song name
# A B C D E F G H I J K L M N O P Q R S T U V W X Y Z

Eels - Dog Faced Boy tab

Title: Dog Faced Boy
Artist: Eels
Album: Souljacker
Tabbed by:  (Matt A.)


Tuning: Dropped D (D A D G B E)
Verse/Main Riff
E|--------------------------------------------------||
B|--------------------------------------------------||
G|--------------------------------------------------||
D|0-3-5-5-5-5-3-3-0---------------------------------||
A|0-3 5-5-5-5-3-3-0---------------------------------||
D|0-3-5-5-5-5-3-3-0---------------------------------||

Chorus
E|--------------------------------------------------||
B|--------------------------------------------------||
G|--------------------------------------------------||
D|77777777-55555555--02320-5------------------------||
A|77777777-55555555--02320-5------------------------||
D|77777777-55555555--02320-5------------------------||

Post Chorus/Fill
E|--------------------------------------------------||
B|--------------------------------------------------||
G|--------------------------------------------------||
D|035555330-----------------------------------------||
A|--------------------------------------------------||
D|--------------------------------------------------||
Tap to rate this tab
# A B C D E F G H I J K L M N O P Q R S T U V W X Y Z