Song name
# A B C D E F G H I J K L M N O P Q R S T U V W X Y Z

Eels - Stick Together tab

-------------------------------------------------------------------------------
        Eels - Stick Together
-------------------------------------------------------------------------------
Tabbed by: Newg 
E-mail: gwendal.mollo@orange.fr

Tuning: Standard

Intro & Verses
e|--------------------------------------------------------------------|
B|--------------------------------------------------------------------|
G|--------------------------------------------------------------------|
D|-------------3------------------------------------------------------|
A|----3h5-----------5----3---------1--3--4---3----1-3-1---------------|
E|----------------------------------------------------------3---------|   

 
    Same riff but +1 octave
e|--------------------------------------------------------------------| 
B|------------6-------------------------------------------------------|
G|-------5h7---------7----5---------3--5--6--5----3-5-3---------------|
D|----------------------------------------------------------------5---|
A|--------------------------------------------------------------------|
E|--------------------------------------------------------------------|x4            


Riff during the verses
e|---------------------1-----------(3)--------------------------------------|
B|---------------------------------------------------------------------------|
G|-------3-----0------------------------------------------------------------|
D|---------------------------------------------------------------------------|
A|---------------------------------------------------------------------------|
E|---------------------------------------------------------------------------|


e|-----------------------------------------------------------------------------|
B|---------------------1------------------------------------------------------|
G|-------2--------------------------------------------------------------------|
D|-------------3--------------------------------------------------------------|
A|----------------------------------------------------------------------------|
E|----------------------------------------------------------------------------|

Bridge 1&2
Gt1
e|--------------------------------------------------------------------|
B|--------------------------------------------------------------------|
G|--------------------------------------------------------------------|
D|---5--5--5--5--5--5--5--5--5--5--5--5--5--5--5--5--5--5--5--5-------|
A|--------------------------------------------------------------------|
E|--------------------------------------------------------------------|
    

Gt2        
      C   A#   A    G
e|-----------------------------------|
B|----1--------2---------------------|
G|----0----3---2----0----------------|
D|----2----3---2----0----------------|
A|----3----1---0----2----------------|
E|------------------3----------------|
      
      F         Dm
e|----1----------1----------|
B|----1----------3----------|
G|----2----------2----------|
D|----3----------0----------|
A|----3---------------------|
E|----1---------------------|

e|--------------------------------------------------------------------|
B|--------------------------------------------------------------------|
G|--------------------------------------------------------------------|
D|--------------------------------------------------------------------|
A|--------------------------------------------------------------------|
E|-----3---3---3---3---3---3---3---3---3---3---3---3---3---3---3---3--|
Tap to rate this tab
# A B C D E F G H I J K L M N O P Q R S T U V W X Y Z