Song name
# A B C D E F G H I J K L M N O P Q R S T U V W X Y Z

Eilera - Addicted tab

-------------------------------------------------------------------------------
			     Addicted - Eilera
-------------------------------------------------------------------------------
Tabbed by: laloutr3
Email: laloutr3@gmail.com
Band : http://www.eilera.com/  http://www.myspace.com/eilera

Tuning: BEADGBe - You need a 7 strings guitar for that song 

For the rythm, listen to the song !

Intro - Chorus

Repeat this sample :

e|---------------------------------------------------------------------------|
b|---------------------------------------------------------------------------|
G|------------------5---3----------------------------------------------------|
D|------6-------3---5---3---6---3--------------------------------------------|
A|--3---6---3---3---3---1---6---3--------------------------------------------|
E|--3---4---3---1-----------4---1--------------------------------------------|
B|--1-------1----------------------------------------------------------------|

And at the end of this sample, hold :

e|---------------------------------------------------------------------------|
B|---------------------------------------------------------------------------|
G|---------------------------------------------------------------------------|
D|--5------------------------------------------------------------------------|
A|--5------------------------------------------------------------------------|
E|--3------------------------------------------------------------------------|
B|---------------------------------------------------------------------------|

Verse 

When the violins enter, repeat this sample, with P.M. :

e|---------------------------------------------------------------------------|
B|---------------------------------------------------------------------------|
G|---------------------------------------------------------------------------|
D|---------------------------------------------------------------------------|
A|---------------------------------------------------------------------------|
E|---3-33-33-3-33-33-3-33-33-------------------------------------------------|
B|---------------------------------------------------------------------------|

When the verse end and go to the chorus, finish the sample above with :

e|---------------------------------------------------------------------------|
B|---------------------------------------------------------------------------|
G|------3--------------------------------------------------------------------|
D|--6---3--------------------------------------------------------------------|
A|--6---1--------------------------------------------------------------------|
E|--4------------------------------------------------------------------------|
B|---------------------------------------------------------------------------|

And then go to the first sample. 
Tap to rate this tab
 
# A B C D E F G H I J K L M N O P Q R S T U V W X Y Z