Guitaretab - guitar tabs
Song name
# A B C D E F G H I J K L M N O P Q R S T U V W X Y Z

Elbow - Leaders Of The Free World tab

Band: Elbow
Song: Leaders of the Free World (solo)

This is just the solo for Leaders of the Free World.  If you want all the chords
and lyrics, check out the other guy's tab, cos its pretty cool.

         Em                               B
e:--------------------------------------------------------------------------|
B:--------------------------------------------------------------------------|
G:--------------------------------------------------------------------------|
D:------------------------------------------------7-------------------------|
A:-9-9-9-9b10r9-7-9-9b10r9----7-9-7-9--9--9b(10)-**--r9-7-5-----------------|
E:----------------------------------------------------------7---5-7-8-7-5-7-|
               **Hold the bent note
[ Tab from: http://www.guitaretab.com/e/elbow/64407.html ]
  Am                                     C                              Em
e:--------------------------------------------------------------------------|
B:--------------------------------------------------------------------------|
G:--------------------------------------------------------------------------|
D:-------------------------------------------------------.------.----.------|
A:------------.----------------.---------7-7-7-7-7-7-7-7-7------10---9---7--|
E:-7-b-8-r-7--5-----x7-b-8-r7--5---3-5--------------------------------------|
                                                                    "My thinking..."

Any comments etc. to carswellium@hotmail.com

All my own work, and don't try and flog it off as your own, cos I know where you live.

Stew C.
Related for Leaders Of The Free World tab
Advertisement will be closed in 10 seconds