Guitaretab - guitar tabs
Song name
# A B C D E F G H I J K L M N O P Q R S T U V W X Y Z

Electric Six - Gay Bar tab

Main Riff
e|--------------------------|
B|--------------------------|
G|--------------------------|
D|-----353------------------|
A|-5-5-----54-3-3-0-0-3-4-0-|
E|--------------------------|

Solo #1 (00:33)                 4th Time
e|--------------------------|  |-------------------|
B|-8-88-10b-88-8-10b10b10b--|  |-8-888-10-8-10b----|
G|-7-77-9b--77-7-9b-9b-9b---|X3|-7-777-9--7-9b-----|
D|--------------------------|  |-------------------|
A|--------------------------|  |-------------------|
E|--------------------------|  |-------------------|

e|--------------------------------|
B|-----------12-13/12-13/12-13/12-|
G|-7-77-77---12-12----12----12----|
D|-7-77-77------------------------|
A|--------------------------------|
E|--------------------------------|

Verse - Main Riff
[ Tab from: http://www.guitaretab.com/e/electric-six/25515.html ]
Solo #2 (01:20)
e|-------------------|---------------------|--------------------|
B|------6------6-----|-------6------6------|------6------6------|
G|-5-57---7--7---5-7-|-77-57---7--7---5-7--|-5-57---7--7---5-7--|
D|-------------------|---------------------|--------------------|
A|-------------------|---------------------|--------------------|
E|-------------------|---------------------|--------------------|

e|-------------------|-7/99-7/9-7/9-999999-|-7/99-7/9-7/9-12p11-9-7/99-|
B|-------6-7-77-8-88-|---------------------|---------------------------|
G|-5555-7------------|---------------------|---------------------------|
D|-------------------|---------------------|---------------------------|
A|-------------------|---------------------|---------------------------|
E|-------------------|---------------------|---------------------------|

e|-7/99-7/9-7/9-999999-|-7/99-7/9-7/9-999999-|-9--------------|
B|---------------------|---------------------|----------------|
G|---------------------|---------------------|----------------|
D|---------------------|---------------------|----------------|
A|---------------------|---------------------|----------------|
E|---------------------|---------------------|----------------|
Related for Gay Bar tab
Gay Bar chords by Electric Six