Song name
# A B C D E F G H I J K L M N O P Q R S T U V W X Y Z

Elefante - La Que Se Fue tab

INTRO:


e|------0--------1-------3-------------1------0-----------------------------
B|--------------------------------------------------------------------------
G|--0-------2--------4------------2----------0------------------------------
D|--------------------------------------------------------------------------
A|--------------------------------------------------------------------------
E|--------------------------------------------------------------------------


e|--------1----------3--------5---------3---------1-------------------------
B|--------------------------------------------------------------------------
G|---2---------4----------5---------4---------2-----------------------------
D|--------------------------------------------------------------------------
A|--------------------------------------------------------------------------
E|--------------------------------------------------------------------------

Aqui se toca con dos Guitarras uno el Requinto y el otro acompa?andolo en 
ritmo de Ranchero o Balada

 C                        A#  
Todo lo que yo buscaba
       Dm
Estaba en ella


e|--------1-------0------------1------------|
B|-----------------------3------3-----------|
G|----2-------0------2---------2------------|
D|------------------------------------------|
A|------------------------------------------|
E|------------------------------------------|


C   Gm        F
Pero desaparecio

e|--------5---------3-------1---------------|
B|------------------------------------------|
G|----5-------3--------2--------------------|
D|------------------------------------------|
A|------------------------------------------|
E|------------------------------------------|


Gm      F          C          Dm
Un mal dia sin pensarlo se largo
         F                      
Como quisiera,  

e|----------5-------------------
B|----------------------------
G|-------5--------------------

                         Am              
que no me doliera
e|----------8-------------------
B|----------------------------
G|-------9--------------------
              
	C
 esta canci?n

e|--------1--0---0--1----0--0-----
B|----------------------1--1-----
G|-----2--------2----------------

                                A#
Hay, hay, hay si supiera hay,hay,hay


Solo: Gm    C    A#  Am    C       


                         
e|-------10---------------------------------------------------------------------------
B|----11------------11-11/10----10-10/8---8----6--5-------------6--6------------------
G|12----------12----12-12/10----10-10/9---9----------7--5---7---7--7----7---5h7p5---5-
D|12------------------------------------------------------------------------------------7
A|--------------------------------------------------------------------------------------
E|--------------------------------------------------------------------------------------

                  
e|----------------------------10---12/13p12--10--------------------------------------
B|---9/10-10-10br~-10-----10--------------------13----11-10-8-----8h10-8--------------
G|---9/10-10-10br~-10--------------------------------------------10------------------
D|------------------------------------------------------------------------------------
A|---------------------------------------------------------------------------------------
E|---------------------------------------------------------------------------------------



e|-----------------------------
B|---------10--8--6--5-------
G|---------10--9--7--5--------
D|--10-10--------------------
A|----------------------------
E|-----------------------------



Gm     C   Dm        A#
Yo la llevo a donde voy 


Final
e|----------------------------------------------5--------------8---------8---------
B|---------6------------6------------6--6/8-8-----8--6-----6----6-6--6---6-6h8-
G|----5h7---7-----5-7----7------5h7-------------------7--------------------------
D|----------------------------------------------------------------------------------
A|----------------------------------------------------------------------------------
E|----------------------------------------------------------------------------------


 

e|-----8--------------------------8-8----------------------------------------------
B|---6----6-6h8-6-6h8-6-6h8-6-------6--6h-8--8/10-10-10-8--------------------
G|---------------------------------------------------------------10-7br--------------
D|----------------------------------------------------------------------------------
A|----------------------------------------------------------------------------------
E|----------------------------------------------------------------------------------


C                 Gm
todo lo que yo buscaba
       Dm
Estaba en ella
C   Gm        F
Pero desaparecio
Gm      F          C          Dm
Un mal dia sin pensarlo se largo
         F                  Am              C    
Como quisiera,  que no me doliera esta canci?n
                    A#  
Hay, hay, hay si supiera hay,hay,hay

CORO:

Dm              F             C
Que me esta llevando la tristeza
Dm               F            C
Que me estoy bebiendo este dolor
Gm           F              Am
Que mi vida ya esta casi muerta
                  C
Hay hay hay si supiera

C              Gm                 Dm
El destino me cobro mas de la cuenta
C   Gm            Dm
No me tuvo compasi?n
Gm        F          C          Dm
Y aunque dicen que de amor nadie se enferma 
         F                 Am            C   
Como quisiera que no me doliera eta canci?n
                    A#
Hay, hay, hay, si supiera

CORO:

Dm              F             C
Que me esta llevando la tristeza
Dm               F            C
Que me estoy bebiendo este dolor
Gm           F              Am
Que mi vida ya esta casi muerta
                  C     Gm C A# F Am C
Hay hay hay si supiera
Gm     C   Dm        A#
Yo la llevo a donde voy 

         F                 Am            C   
Como quisiera que no me doliera eta canci?n
                    A#
Hay, hay, hay, si supiera

CORO:

Dm              F             C
Que me esta llevando la tristeza
Dm               F            C
Que me estoy bebiendo este dolor
Gm           F              Am
Que mi vida ya esta casi muerta
                  C
Hay hay hay si supiera Dm A# C Dm A# C  Dm

Tap to rate this tab
# A B C D E F G H I J K L M N O P Q R S T U V W X Y Z