Song name
# A B C D E F G H I J K L M N O P Q R S T U V W X Y Z

Eleven - What Can I Do tab

Great song. Not 100% complete, but it's enough to sit and jam by yourself and have
it sound good. I'm aware that my abbreviations may be incorrect for chord names.
The one I'm most unsure the actual name of the chord is the E/G#, so incase that's
the wrong name, here's the chord

D|--6------------|
A|--7------------|
F|--6------------|
C|--8------------|
G|--9------------|
D|--6------------|


Tuning: one step down


Dm       Am               Gmaj
see you crawl through the day

see you blocking your way

see you draining your fountain

see you run from the mountain

Dm      Am       Gmaj     Gm
try to open the door but what can I do?

try to clear where you stand but what can I do?
Emaj                     A#maj
try to hold up the mirror but what can I do? you've been there before

                       Fmaj       Eb     Dm

you're destiny called  what can I do for you?


D|----------------------------------------|
A|----------------------------------------|
F|----------------------------------------|
C|----9h11p9/8----------------------------|
G|-----------------10-7-5-----------------|
D|0~~~~~~~~~--------------8-7-5h7p5/4-----|


Dm    Am        E/G#     Gm
why hide your fear in your heart? why hold my tear in your cup?

                                  Fmj        Emj    Dmj
dont slap my hand away cause then what can I do for you?


D|------------------------------------------|
A|----------4-------------------------------|
F|-----0h4---4p0----------0-----------------|
C|--------------------1---2-----------------|
G|-----------------2------2-----------------|
D|0~~~~~~~~~--------------0-----------------|


whoa oh oh
(verse rhythm)

I see you building a maze
I see you walk in a daze
I hear you shout when you're quiet
I see it all when you hide
Tap to rate this tab
 
# A B C D E F G H I J K L M N O P Q R S T U V W X Y Z