Song name
# A B C D E F G H I J K L M N O P Q R S T U V W X Y Z

Ellegarden - Alternative Plans tab

Intro:
  G      D      C      D
e|-3--3-|-2--2-|-0--0-|-2--2-|
B|--3---|--3---|--1---|--3---|
G|---0--|---2--|---0--|---2--|
D|------|------|------|------|
A|------|------|------|------|
E|------|------|------|------|
 Dreaming of the days we have some alternative plans.

  Em     Bm     C      G
e|-0--0-|-2--2-|-0--0-|-3--3-|
B|--0---|--3---|--1---|--3---|
G|---0--|---4--|---0--|---2--|
D|------|------|------|------|
A|------|------|------|------|
E|------|------|------|------|
  Like holding hands and staring up and counting little stars.

  G      D      C      D
e|-3--3-|-2--2-|-0--0-|-2--2-|
B|--3---|--3---|--1---|--3---|
G|---0--|---2--|---0--|---2--|
D|------|------|------|------|
A|------|------|------|------|
E|------|------|------|------|
  Smarting enough to know it's sort of just a little joke.


  Em     Bm     C  D   G
e|-0--0-|-2--2-|-0-2--|-3----|
B|--0---|--3---|--1-3-|-3----|
G|---0--|---4--|------|-0----|
D|------|------|------|-0----|
A|------|------|------|-2----|
E|------|------|------|-3----|
  I'm sorry I never meant to be like this.

The whole song goes like this:
G  D  C  D
Em Bm C  G

You can figure out yourself. It's quite easy.



Tap to rate this tab
# A B C D E F G H I J K L M N O P Q R S T U V W X Y Z