Song name
# A B C D E F G H I J K L M N O P Q R S T U V W X Y Z

Ellington Duke - Satin Doll tab

This is the 100% correct guitar arrangement of Satin Doll by Duke Ellington. 

(Mordrate Swing Jazz)

    Dm7      G7       Dm7  G7      Em7    A7         Em7 A7
e|---------------|--------------|---------------|--------------|
B|---------------|--------------|---------------|--------------|
G|---2-0-2-0-2---|-----2--0-2---|---4-2-4-2-4---|-----4--2-4---|
D|---------------|--------------|---------------|--------------|
A|---------------|--------------|---------------|--------------|
E|---------------|--------------|---------------|--------------|

      Am7 D7        Abm7 Db7                 Cmaj7   Dm7     Em7  A7
e|--------------|---------------------------|--------------|-----------|
B|-----3--1-3---|---------------------------|--------------|-----------|
G|--------------|-----3--1--3-0(let ring)---|--------------|-----------|
D|--------------|---------------------------|--------------|-----------|
A|--------------|---------------------------|--------------|-----------|
E|--------------|---------------------------|--------------|-----------|

    Dm7      G7       Dm7  G7      Em7    A7         Em7 A7
e|---------------|--------------|---------------|--------------|
B|---------------|--------------|---------------|--------------|
G|---2-0-2-0-2---|-----2--0-2---|---4-2-4-2-4---|-----4--2-4---|
D|---------------|--------------|---------------|--------------|
A|---------------|--------------|---------------|--------------|
E|---------------|--------------|---------------|--------------|

      Am7 D7        Abm7 Db7                 Cmaj7
e|--------------|---------------------------|--------------|-----------|
B|-----3--1-3---|---------------------------|--------------|-----------|
G|--------------|-----3--1--3-0(let ring)---|--------------|-----------|
D|--------------|---------------------------|--------------|-----------|
A|--------------|---------------------------|--------------|-----------|
E|--------------|---------------------------|--------------|-----------|

    Gm7     C7             Gm7    C7                 Fmaj7
e|-------------------|-----------------------------|---------|---------|
B|---1-----------1---|---------------1(let ring)---|---------|---------|
G|-----3-2-0-2-3-----|-----3-2-0-2-3---------------|---------|---------|
D|-------------------|-----------------------------|---------|---------|
A|-------------------|-----------------------------|---------|---------|
E|-------------------|-----------------------------|---------|---------|

    Am7     D7             Am7     D7      G7   Dm7     G7
e|-------------------|-------------------|------------|--------|
B|---3-1-0---0-1-3---|-----1-0---0-1-3---|------------|--------|
G|---------2---------|---------2---------|------------|--------|
D|-------------------|-------------------|------------|--------|
A|-------------------|-------------------|------------|--------|
E|-------------------|-------------------|------------|--------|

    Dm7      G7       Dm7  G7      Em7    A7         Em7 A7
e|---------------|--------------|---------------|--------------|
B|---------------|--------------|---------------|--------------|
G|---2-0-2-0-2---|-----2--0-2---|---4-2-4-2-4---|-----4--2-4---|
D|---------------|--------------|---------------|--------------|
A|---------------|--------------|---------------|--------------|
E|---------------|--------------|---------------|--------------|

      Am7 D7        Abm7 Db7                 Cmaj7   Dm7     Em7  A7
e|--------------|---------------------------|--------------|-----------|
B|-----3--1-3---|---------------------------|--------------|-----------|
G|--------------|-----3--1--3-0(let ring)---|--------------|-----------|
D|--------------|---------------------------|--------------|-----------|
A|--------------|---------------------------|--------------|-----------|
E|--------------|---------------------------|--------------|-----------|

    Dm7      G7       Dm7  G7      Em7    A7         Em7 A7
e|---------------|--------------|---------------|--------------|
B|---------------|--------------|---------------|--------------|
G|---2-0-2-0-2---|-----2--0-2---|---4-2-4-2-4---|-----4--2-4---|
D|---------------|--------------|---------------|--------------|
A|---------------|--------------|---------------|--------------|
E|---------------|--------------|---------------|--------------|

      Am7 D7        Abm7 Db7                 Cmaj7
e|--------------|---------------------------|--------------|
B|-----3--1-3---|---------------------------|--------------|
G|--------------|-----3--1--3-0(let ring)---|--------------|
D|--------------|---------------------------|--------------|
A|--------------|---------------------------|--------------|
E|--------------|---------------------------|--------------|
Tap to rate this tab
# A B C D E F G H I J K L M N O P Q R S T U V W X Y Z