Song name
# A B C D E F G H I J K L M N O P Q R S T U V W X Y Z

Elliott Smith - Somebody That I Used To Know tab

Somebody That I Used to Know
Elliott Smith
Figure Eight
2001

CAPO 1st
4/4 time

chords:
C/G: 332010
Fmaj7/C: X33210
Em: 022000
G7: 320001
F: x33211
Fm: x33111

basically elliott fingerpicks his way through those chords with some
little bass fills, but for those that like to be specific here's the
tab i figured out.

 C/G		     Fmaj7/C   Em		    G7
e-0-------|-0-------|-0-------|-0-------|-0--------|--0h1----|--1------|
B-------1-|-------1-|-------1-|-------0-|----------|------0--|---------|
G---------|---------|---------|---------|----------|---------|---------|
D---2----2|---2----2|---3----3|---2----2|---------0|--0-----0|-------0-|
A---------|---------|-3---3---|---------|----------|---------|---------|
E-3---3---|-3---3---|---------|-0---0---|-0----1---|-3-------|-3---3---|

 F	   Fm		  B - C     G7 			F
e-1-------|-----------1-|---------|-------0h1-|1-------|--1----1-|
B---1-----|-------------|---0---0-|---0-------|--------|--1----1-|
G---------|--------1----|-0---2---|-0---------|--------|--2--2-2-|
D---3---3-|-----3-----3-|---------|-----------|---0---0|--3-3--3-|
A-3---3---|-------------|-2---3---|-----------|--------|-3-------|
E---------|-3/4----4----|---------|-3---3-----|-3---3--|---------|

 Fm
e---1--1-1-|---1--1-1-|---1--1-1--|
B---1--1-1-|---1--1-1-|---1--1-1--|
G---1--1-1-|---1--1-1-|---1--1-1--|
D---3--3-3-|---3--3-3-|---3--3-3--|
A-3-3--3-3-|-3-3--3-3-|-3-3--3-3--|
E----------|----------|-----------|

i had tender feelings that you made hard
but it's your heart, not mine, that's scarred
so when i go home I'll be happy to go
you're just somebody that i used to know

you don't need my help anymore
it's all now to you, there ain't no before
now that you're big enough to run your own show
you're just somebody that i used to know

i watched you deal in a dying day
and throw a living past away
so you can be sure that you're in control
you're just somebody that i used to know

solo:

e---------------------------------0------------------------------|
B---1--1--1-1--0--------------------4-3-1------------------------|
G----------------2--0-----2/4-2-0----------2-h4p2p0--------------|
D----2--2-------------2------------------------------0h2-0-------|
A-3--------------------------------------------------------------|
E----------------------------------------------------------------|

e-------------------------------------------------------------------------|
B-------------------------------------------------------------------------|
G-------------------------------------------------------------------------|
D-----------------------/2--2-2p0-2-0h2--2h3--2-0-0h2---------------------|
A--3--3-3-3-3/5--3-3-3-3------------------------------3--3-3--3-3-3/5-3-3-|
E-------------------------------------------------------------------------|

[the first part of the solo (everything before the "2/4 2 0" on the G
string) is more or less the same thing he plays in "clementine," but a bit
faster. that second part (the stuff on the A and D strings) isn't note for
note but it shows what he does...listen to the song for rhythm and
specifics...]

i know you don't think you did me wrong
and i can't stay this mad for long
keeping a hold of what you just let go
you're just somebody that i used to know

solo again

after the solo...

D--0---------0-|
A-----2--3-----|
E--------------|

Fm (x3311x) G (3200xx) C/G (332010)
Tap to rate this tab
# A B C D E F G H I J K L M N O P Q R S T U V W X Y Z