Guitaretab - guitar tabs
Song name
# A B C D E F G H I J K L M N O P Q R S T U V W X Y Z

Elliott Smith - Speed Trials tab

-------------------------------------------------------------------------------
			     Speed Trials - Elliott smith
-------------------------------------------------------------------------------
Tabbed by: Benjomatico
Email: Benni.wassermann@web.de

Note that this is only a approach to smith's song, however, it sounds great as I think!! 
Elliott Smith!!

Tuning: 1 step down


Intro: play 2 times
e|-----------------------------------------------------------------------------|
B|-----------------------------------------------------------------------------|
G|-----------------------------------------------------------------------------|
D|-4--4--4--4--4--4--4--4--4--4--4--4--4--4--4--4------------------------------|
A|-------------0--0--0--0--2--2--2--2--4--4--4--4------------------------------|
E|-----------------------------------------------------------------------------|


Verse: Rando Strumming
e|-0-----------0-----------0-----------0--------|--x----------0----0-----------|
B|-3-----------3-----------3-----------3--------|--3----------2----0-----------|
G|-2-----------2-----------4-----------4---3x---|--3----------2----2-----------|
D|-4-----------4-----------4-----------x--------|--3----------2----2-----------|
A|-5-----------0-----------2-----------4--------|--1----------0----0-----------|
E|----------------------------------------------|------------------------------|
[ Tab from: http://www.guitaretab.com/e/elliott-smith/83133.html ]
e|-0-----------0-----------0-----------0--------|--x----x----------------------|
B|-3-----------3-----------3-----------3--------|--3----3-----1----2-----------|
G|-2-----------2-----------4-----------4---2x---|--4----3-----2----2-----------|
D|-4-----------4-----------4-----------x--------|--4----3-----2----2-----------|
A|-5-----------0-----------2-----------4--------|--2----1-----0----0-----------|
E|----------------------------------------------|------------------------------|


 Chorus: random strumming
e|-0-------0------2--2--0-x--0--------|-------------------------------------------|
B|-3-------0------0--0--0-3--2--------|-------------------------------------------|
G|-2-------1------0--0--0-0--0---2x---|-------------------------------------------|
D|-4-------2------0--0--0-0--2--------|-------------------------------------------|
A|-0-------2------x--x--x-x--0--------|-------------------------------------------|
E|---------0(2)---3--3--3-3-----------|-------------------------------------------|

  Outro: you got it ;)
e|-/-7---------\-3---------2---2---2---0---0-------------------------------------|
B|-/-7---------\-3---------3---3---3---3---2-------------------------------------|
G|-/-8---------\-4---------2---2---2---2---2-------------------------------------|
D|-/-9---------\-5---------4---4---2---0---2-------------------------------------|
A|-/-9---------\-5---------0---0---0---0---0-------------------------------------|
E|-/-7---------\-3---------------------------------------------------------------|

e|-/-7---------\-3---------2---2---2---0---0--------|--------------------------------|
B|-/-7---------\-3---------3---3---3---3---2--------|--------------------------------|
G|-/-7---------\-4---------2---2---2---2---2--3x---fade--|---------------------------|
D|-/-9---------\-5---------4---4---2---0---2--------out------------------------------|
A|-/-9---------\-5---------0---0---0---0---0--------|--------------------------------|
E|-/-7---------\-3----------------------------------|--------------------------------|


    Intro
    Verse
    Chorus
    Intro
    Verse
    Chorus
    Outro


| /  slide up
| \  slide down
| h  hammer-on
| p  pull-off
| ~  vibrato
| +  harmonic
| x  Mute note
===============================================================================
Related for Speed Trials tab
Advertisement will be closed in 10 seconds